Song name
# A B C D E F G H I J K L M N O P Q R S T U V W X Y Z

John Butler Trio - One Way Road chords

Highlighted       Show chord diagrams
-------------------------------------------------------------------------------
			     ONE WAY ROAD - John Butler Trio
-------------------------------------------------------------------------------
Tabbed by: ferretyjeans
Email: ferretyjeans@hotmail.com

Tuning: standard
Intro: Slide down this chord
e|----------------------------------------------------------------------------------|
B|----------------------------------------------------------------------------------|
G|-------9\\\\----------------------------------------------------------------------|
D|-------9\\\\----------------------------------------------------------------------|
A|-------7\\\\----------------------------------------------------------------------|
E|----------------------------------------------------------------------------------|
Verse/Chorus/Solo
         G           D         E Minor  C
e|-------3-----------5---------7--------3------------------------------------------|
B|-------3-----------7---------8--------5------------------------------------------|
G|-------4-----------7---------9--------5------------------------------------------|
D|-------5-----------7---------9--------5------------------------------------------|
A|-------5-----------5---------7--------3------------------------------------------|
E|-------3-------------------------------------------------------------------------|

You can also play the open chords, it sounds pretty funky


e|-----3---------2--------0----------0---------------------------------------------|
B|-----3---------3--------0----------1---------------------------------------------|
G|-----0---------2--------0----------0---------------------------------------------|
D|-----0---------0--------2----------2---------------------------------------------|
A|-----2------------------2----------3---------------------------------------------|
E|-----3------------------0--------------------------------------------------------|


************************************

| /   slide up
| \   slide down
| h   hammer-on
| p   pull-off
| ~   vibrato
| +   harmonic
| x   Mute note
| b   Bend
| pb  Pre-bend
| br  Bend release
| pbr Pre-bend release
| brb Bend release bend

************************************
Tap to rate this tab
# A B C D E F G H I J K L M N O P Q R S T U V W X Y Z