John Butler Trio - Zebra tab

Band: John Butler Trio
Song: Zebra
Album: Sunrise over sea

Tuning: open C ( C, G, C, G, C, E )

Palm mute the guitar throughout the intro

E|---------------------------------------------------------|
C|---------------------------------------------------------|
G|-4-4-4-2-4-----------------------------------------------|
C|-----------4-6-4-6---2-2-4-2-4--------4/5/4--2-----------|
G|----------------------------------2-4---------4----------|
C|---------------------------------------------------------|

E|---------------------------------------------------------|
C|---------------------------------------------------------|
G|-4-4-4-2-4-----------------------------------------------|
C|-----------4-6-4-6---2-2-4-2-4--------4/5/4--2-----------|
G|----------------------------------2-4---------4----------|
C|---------------------------------------------------------|

E|---------------------------------------------------------|
C|-----2-1-------------------------------------------------|
G|-4-4-----4-----------------------------------------------|
C|-----------4-6-4-6---2-2-4-2-4--------4/5/4--2-----------|
G|----------------------------------2-4---------4----------|
C|---------------------------------------------------------|

E|---------------------------------------------------------|
C|---------------------------------------------------------|
G|-4-4-4-2-4-----------------------------------------------|
C|-----------4-6-4-6---2-2-4-2-4--------4/5/4--2-----------|
G|----------------------------------2-4---------4----------|
C|---------------------------------------------------------|

Cheers :)
Tap to rate this tab
 
# A B C D E F G H I J K L M N O P Q R S T U V W X Y Z