John Butler Trio - Mystery Man tab

Mystery man tabs by john butler trio
(live verson which is a bit easyer) tuning DBGDGC
capo 2nd

D|------------------------------------------------|
B|--3p0---0----------------0----------------------|
G|------4---2p0-----0--------0-------0------------| rift #1
D|--------------0h4---4------------------0--------|
G|--0---------------------------------------------|
C|----------------------4-------4-2---------------|

|-------------------------------------------------|
|-------------------------------------------------|
|--------0h2p0-2s4s2p0h2p0----0--------0----------| rift# 2
|--0h2h4-------------------------0---------0------|
|-------------------------------------------------|
|--------------0-----------4-------4-2------------|

(Beginning #1 #2 #1 #2) (verse #1 #1 #1 #2)
____________________________________________________________________

PreChorus (waiting for...) -u can strum roughly hitting other strings-
|-----------------------------------------------------------|
|-----------------------------------------------------------|
|-----------------------------------------------------------|
|-----------------------------------------------------------|
|----2s4s2p0--2-(strum)-4-(strum)-4s5-(strum)-5--4--2--0----|
|-0~~---------2---------4---------4~~---------4--4--2--0----|
                                    (chorus- now im gone...)
|-------------------------------------|--------------------------|
|-------------------------------------|--------------------------|
|-------------------------------------|--------------------------|
|-------------------------------------|--------------------------|
|----2s4s2p0--2-(strum)-4-(strum)-2~~~|-7-(st.)-s9-(st.)-0-(st.)-|(4x)
|-0~~---------2---------4---------2~~~|-7-------s9-------0-------|
______________________________________________________________

(Beginning 2 - #1 #2 #3 #4) (verse 2 - #1 #1 #1 #2)

D|------------------------------------------------------|
B|--3s5s3p0---------------------0---------0-------------|
G|----------4--2h4p2-----0--------0----------0----------| rift #3
D|-------------------0h4---4----------------------------|
G|--0---------------------------------------------------|
C|---------------------------4-------4-2----------------|

D|-----------------------------------------------------|
B|--3p0-----------------0-----0------------------------|
G|------4p2p0-------------------0----------------------| rift #4
D|------------4p2p0------------------------------------|
G|--0---------------0h2---2s4-----2--------------------|
C|-----------------------------------------------------|
________________________________________________________________

******(Prechorus and chorus same as earlier tabs)*******
________________________________________________________________

(solo)(mixure of solos from his live video and his recording)
|--------------------|---------------------|
|--------------------|-7s8s7-5-------------|
|--------------------|---------4-5 7-7-7-7-|
|--0-0-0-0-0-0-0-0-0-|---------------------|
|--0-0-0-0-0-0-0-0-0-|---------------------|
|--4-4-6-7-2-2-4-6-0-|---------------------|

|--------------------|----------------------|
|--------------------|----------------------|
|--------------------|----7-7 7h9p7---7-7-7-|
|--0-0-0-0-0-0-0-0-0-|-7s9----------9-9-9-9-|
|--0-0-0-0-0-0-0-0-0-|----------------------|
|--4-4-6-7-2-2-4-6-0-|----------------------|

|--------------------|---------------------|
|--------------------|---------------------|
|--------------------|---------------------|
|--0-0-0-0-0-0-0-0-0-|-----5s7s9-9-9-9-----|
|--0-0-0-0-0-0-0-0-0-|-4h5-----------------|
|--4-4-6-7-2-2-4-6-0-|---------------------|

|--------------------------|
|--------------------------|
|--------------------------|
|--0-0-0-0-0-0-0-0-0~~~~~~-|
|--0-0-0-0-0-0-0-0-0~~~~~~-|
|--4-4-6-7-2-2-4-6-0~~~~~~-|
_______________________________________________________________

Turn around (bridge)
|----------------------------------------------------------------|
|----------------------------------------------------------------|
|-0---0-----0-----0-----0-----0-----0-0-0------------------------|
|-4s5---5s4---4s5---5s4---4s5---5s4-4-4-4-(play 4 times)---------|
|-----------------------------------------(gradually get louder)-|
|----------------------------------------------------------------|
________________________________________________________________

end goes rift #1 #1 #1 #1 slightly slow down at end, then strum harmonic on 12th fret(he 
does this on his live video)

#1 #2 #1 #2 (then starts singing)
#1 #1 #1 #2
-chorus
#1 #2 #3 #4 (then starts singing again after #4)
#1 #1 #1 #2
-chorus
-solo
-turn around (bridge)
#1 #1 #1 #1
-12th fret harmonic strum ending

sorry kinda hard to follow but use the rift numbers and piece the song together and 
there may be some mistakes. watch me play this song on youtube search up trevor mystery man 
and u might find it thankyou
Tap to rate this tab
 
# A B C D E F G H I J K L M N O P Q R S T U V W X Y Z