Song name
# A B C D E F G H I J K L M N O P Q R S T U V W X Y Z

John Carpenter - Theme From Snake Plissken tab

                            John Carpenter's 
                          Snake Plissken theme 
                  from the movie "Escape from New York"

~: let ring

Intro:
   
    Keep turning your guitar volume here up slowly:
E-|-------------------------------------------------------------------|
B-|-------------------------------------------------------------------|
G-|-------------------------------------------------------------------|
D-|-------------------------------------------------------------------|
A-|-------------------------------------------------------------------|
E-|-0~----------------------------------------------------------------|

E-|-------------------------------------------------------------------|
B-|-------------------------------------------------------------------|
G-|-------------------------------------------------------------------|
D-|-------------------------------------------------------------------|
A-|-------------------------------------------------------------------|
E-|------------0--0--0-0~--0--0--0-0~--0--0--0-0~--0--0--0-0~---------|

E-|-------------------------------------------------------------------|
B-|-------------------------------------------------------------------|
G-|------------------------------------2~----------------2------------|
D-|----2~----------0-2-5~----------0-2-------------0-2-5----5--4--2-1-|
A-|-------------------------------------------------------------------|
E-|-------------------------------------------------------------------|

E-|-------------------------------------------------------------------|
B-|-------------------------------------------------------------------|
G-|-------------------------------------------------------------------|
D-|-------------------------------------------------------------------|
A-|-0-2--1-2~---------------------------------------------------------|
E-|-------------------------------------------------------------------|

Piano part arranged on guitar:

E-|-------------------------------------------------------------------|
B-|-------------------------------------------------------------------|
G-|-------------------------------------------------------------------|
D-|--2---5~----------4---2~----------2---5~----------4---2~-----------|
A-|----2---------------5---------------2---------------5--------------|
E-|-------------------------------------------------------------------|


Tabs by Gregooru
Tap to rate this tab
# A B C D E F G H I J K L M N O P Q R S T U V W X Y Z