Song name
# A B C D E F G H I J K L M N O P Q R S T U V W X Y Z

John Coltrane - Blue Train tab

BLUE TRAIN INTRODUCTION GUITAR TAB


Welcome to the Blue Train Introduction. My name is the FretBoardBlazer 
and this particular groove is one of my favorite licks, and there didn't 
seem to be a tab that wasn't either pro or power, so I thought I'd do 
the deed and tab my favorite little part. This is my first tab so if I 
have messed up, just hit me up on my profile. Thanks. - FretBoardBlazer. 


Shouts out to the Man of Jazz, John Coltrane for creatin' this classic.


-------------------|-------------------|---------------------|
-------------------|-------------------|---------------------|
------10----8--8-8-|------10----8--8-8-|---------------------|
-8-11----11----8-8-|-8-11----11----8-8-|------8--------------|
-------------------|-------------------|----9---9--11--12-12-|
-------------------|-------------------|-11------------10-10-|

-------------------|-----------------------|-------------------|
-------------------|-----------------------|-------------------|
------10----8--8-8-|-----------------------|------10----8--8-8-|
-8-11----11----8-8-|------10---------------|-8-11----11----8-8-|
-------------------|-8-11----11p-10--10-10-|-------------------|
-------------------|------------------8--8-|-------------------|


(Repeat)


p = Pulloff
Tap to rate this tab
 
# A B C D E F G H I J K L M N O P Q R S T U V W X Y Z