Song name
# A B C D E F G H I J K L M N O P Q R S T U V W X Y Z

John Frusciante - Murmur tab

This a very simple way of playing john frusciante's Song "Murmur" The lyrics are at the bottom.

Tabbed by: Andrei"numb82"
E-mail: vanwykandrei@yahoo.com

verse twice
e|---------------------------------------------|
B|---------------------------------------------|
G|---------------------------------------------|
D|------7---------10--------------14-----------|
A|---55---5----88----8------1212-----12-12-12--|
E|---------------------------------------------|

then( Do this before you go back to the singer)

e|---------------------------------------------------------------------------|
B|---------------------------------------------------------------------------|
G|---------------------------------------------------------------------------|
D|------7---------10----------14------14-------12------12--------------------|
A|---55---5----88----8---1212----12-12----1010----10-10----13-13-13h15p--12--|
E|---------------------------------------------------------------------------|

The whole song is the above with singing, but the main singing verse coulf have little fills:

(1)
e|---------------------------------------------------|
B|---------------------------------------------------|
G|---------------------------------------------------|
D|------7---------10--------------14-----------------|
A|---55---5----88----8------1212-----12-12-12h15p12--|
E|---------------------------------------------------|
(2)
e|--------------------------------------------------|
B|--------------------------------------------------|
G|--------------------------------------------------|
D|------7---------10--------------14-14/17/15-------|
A|---55---5----88----8------1212----------------12--|
E|--------------------------------------------------|
(3)
e|-----------------------------------------------------------|
B|-----------------------------------------------------------|
G|-----------------------------------------------------------|
D|------7---------10--------------12h14-----12h14-----12h14--|
A|---55---5----88----8------1212---------12--------12--------|
E|-----------------------------------------------------------|

The song is a canvas for john frusciante to improvise while playing so you can play 
with the fills

Enjoy
Tap to rate this tab
 
# A B C D E F G H I J K L M N O P Q R S T U V W X Y Z