Song name
# A B C D E F G H I J K L M N O P Q R S T U V W X Y Z

John Frusciante - Secret Side tab

This song isn't on an album, but if you want to hear it go to youtube.com and type in 
Frusciante Secret Side.
INTRO
e----------------|
B-8-10-8-7-8-7-8-|
G-9-9--9-9-9-9-9-|
D----------------|
A----------------|
E----------------|
RIFF
e---------------------------------------------------------------------|
B---8-10-8-7-8-7-8---8-10-8-7-8-7-8---8-10-8-7-8-7-8---8-10-8-7-8-7-8-|
G---9-9--9-9-9-9-9---9-9--9-9-9-9-9---9-9--9-9-9-9-9---9-9--9-9-9-9-9-|
D------------------0--------------------------------------------------|
A-----------------------------------7---------------------------------|
E-8-------------------------------------------------------------------|
You have to hold the 8 on E with your thumb.
e---------------------------------------------------------------------|
B---8-10-8-7-8-7-8---8-10-8-7-8-7-8---8-10-8-7-8-7-8---8-10-8-7-8-7-8-|
G---9-9--9-9-9-9-9---9-9--9-9-9-9-9---9-9--9-9-9-9-9---9-9--9-9-9-9-9-|
D------------------0--------------------------------------------------|
A-----------------------------------7---------------------------------|
E-8--------------------------------------------------0----------------|
Do it as much as times necessary.
ENDING
e---------------------------------------7-----------------------------|
B---8-10-8-7-8-7-8---8-10-8-7-8-7-8----8------------------------------|
G---9-9--9-9-9-9-9---9-9--9-9-9-9-9---9-------------------------------|
D------------------0-----------------9--------------------------------|
A-----------------------------------7---------------------------------|
E-8-------------------------------------------------------------------|
You have to start slowing it down but the chord is fast, I was just letting you know 
you don't have to strum it.
Tap to rate this tab
 
# A B C D E F G H I J K L M N O P Q R S T U V W X Y Z