Song name
# A B C D E F G H I J K L M N O P Q R S T U V W X Y Z

John Frusciante - Wonder Woman tab

Artist: John Frusciante and Tricky
Album: Blow back
Song: Wonder woman

Tabbed by Knut Zetterstrøm


Intro:
|--------------|
|--------------|
|--8------7----|
|--8------7----|
|--6------5----|
|--------------|

Verse:
|------------------------------------------------|
|------------------------------------------------|
|--8--8--8--8--8--8--8--8--8--8--8--8--8--8------|
|------------------------------------------------|
|------------------------------------------------|
|------------------------------------------------|


|------------------------------------------------|
|--16-16-15-15--------16-16-16-15-15-15----------|
|--------------15~~---------------------15~~-----|
|------------------------------------------------|
|------------------------------------------------|
|------------------------------------------------|

|------------------------------------------------|
|--16--16--19--19--------------------------------|
|------------------15~~~-------------------------|
|------------------------------------------------|
|------------------------------------------------|
|------------------------------------------------|



Chord Progression for John

G#  C#  F#  B x3
G#  G#  A#  A#

|----------------------15------15--17------------|
|--16--18--19--18--19------19--------------------|
|------------------------------------------------|
|------------------------------------------------|
|------------------------------------------------|
|------------------------------------------------|



Play this during johns verse

|-------------------------------------|
|-------------------------------------|
|-------------------------------------|
|-------------------------------------|
|--6h8---x--6h8---x--6h8---x--6h8-----|
|-------------------------------------|

Play this during Tricky's 2nd verse

|-------------------------------------|
|-------------------------------------|
|-------------------------------------|
|-------------------------------------|
|--4h6---x--4h6---x--4h6---x--4h6-----|
|-------------------------------------|

Interlude

|----------------|
|--------13\-----|
|--------13\-----|
|--------13\-----|
|--6h8-----------|
|----------------|

Little back interlude

|----21--21--21--21--21--21--21--21--21----------|
|------------------------------------------------|
|------------------------------------------------|
|------------------------------------------------|
|------------------------------------------------|
|------------------------------------------------|

just play the Chord Progression of John's chorus 2 frets higher

Outro

|------------------------------------------------|
|----------8--9---9/---13------------------------|
|--10-8-10--------8/---12------------------------|
|------------------------------------------------|
|------------------------------------------------|
|------------------------------------------------|
Tap to rate this tab
 
# A B C D E F G H I J K L M N O P Q R S T U V W X Y Z