Song name
# A B C D E F G H I J K L M N O P Q R S T U V W X Y Z

John Mayer - I Dont Need No Doctor tab

Song: I Don't Need No Doctor
Originally By: Ray Charles
Performed By: John Mayer

This is a song off john mayers new live album where the light is.

Intro/verse:

e|-----------0----------------------------------------|
b|--------------3p0---------3p0------2p0--------------|
g|-----0h1------------0-----4p0------2p0---0h1p0h1p0--|
d|----------------------------------------------------|
a|----------------------------------------------------|
e|--0---------------------3-------3-------------------|

e|----------0----------------------2b--0--2-----------|
b|-------------3p0----------3------3b--3--3-----------|
g|-----0h1------------0-----4-------------------------|
d|----------------------------------------------------|
a|----------------------------------------------------|
e|--0--------------------3----------------------------|

e|----------------------------------------------------|
b|--5-----5-----3-----5-----7-------------------------|
g|--4-----5-----3-----4-----6-------------------------|
d|--5-----4-----2-----5-----7-------------------------|
a|--x-----5-----3-----x-----x-------------------------|
e|--5-----x-----x-----5-----7-------------------------|


"ive been too long away from my baby yeah"...

e|----------------------------------------------------|
b|--7-----5-----3-----5-------------------------------|
g|--6-----4-----2-----4-------------------------------|
d|--7-----5-----3-----5-------------------------------|
a|--x-----x-----x-----x-------------------------------|
e|--7-----5-----3-----5-------------------------------|
Tap to rate this tab
# A B C D E F G H I J K L M N O P Q R S T U V W X Y Z