Song name
# A B C D E F G H I J K L M N O P Q R S T U V W X Y Z

John Mayer - I Dont Trust Myself With Loving You tab

hey this is my fav song off of John's new album CONTINUUM. What an artist. Absolutely
guitarist!!! well anyways heres what I've got so far

Oh and this is played best with your thumb plucking the strings as John does!! OH and If
would mind, could you please tell me what type of effects John is using and what sort
pedal I need to get these efects. Just email me with the answer to 
    muchly appreciated..haha and I passed english lol

~ letring
/ slide
v vibrato
b bend
p pulloff

Intro
e|-----------------------------------------------------|
b|-----------------------------------------------------|
G|-----------------9--9--9--9--14-14-14-14-14-14-14-14-|      X6
D|--10-10-10-10---10-10-10-10--14-14-14-14-14-14-14-14-|
A|--12-12-12-12----------------------------------------|
E|-----------------------------------------------------|


Intro main guitar part comes on end of 2nd repeat (above)

e|-------------------------------------------------------------------------|
B|---------------8--------------------------------8------------------------|
G|-----------------7-------------------------------7-----------------------|
D|-------7-10bp7----10bp7-10v--12/14------7-10bp7---10bp7-6/7v\0-----------|
A|--7-10------------------------------7-10---------------------------------|
E|-------------------------------------------------------------------------|

e|-------------------------------------------------------------------------|
B|---------------8---------------------------------------------------------|
G|-----------------7-------------------------------------------------------|
D|-------7-10bp7----10bp7-10v--12/14----7-9-10-9h10p9p7--------------------|
A|--7-10------------------------------7-----------------10--7-5-3-5~h7p5p0-|
E|-------------------------------------------------------------------------|

Verse

e|-----------------------------------------------------|
b|-----------------------------------------------------|
G|-----------------9--9--9--9--14-14-14-14-14-14-14-14-|      X4
D|--10-10-10-10---10-10-10-10--14-14-14-14-14-14-14-14-|
A|--12-12-12-12----------------------------------------|
E|-----------------------------------------------------|

chorus
e|-----------------------------------------------------|
b|-----------------------------------------------------|
G|-----------------9--9--9--9--14-14-14-14-14-14-14-14-|      X4
D|--10-10-10-10---10-10-10-10--14-14-14-14-14-14-14-14-|
A|--12-12-12-12----------------------------------------|
E|-----------------------------------------------------|

link
e|-----------------------------------------------------|
b|-----------------------------------------------------|
G|-----------------9--9--9--9--14-14-14-14-14-14-14-14-|      X2
D|--10-10-10-10---10-10-10-10--14-14-14-14-14-14-14-14-|
A|--12-12-12-12----------------------------------------|
E|-----------------------------------------------------|

link main guitar part:
e|-------------------------------------------------------------------------|
B|---------------8--------------------------------8------------------------|
G|-----------------7-------------------------------7-----------------------|
D|-------7-10bp7----10bp7-10v--12/14------7-10bp7---10bp7-6/7v\0-----------|
A|--7-10------------------------------7-10---------------------------------|
E|-------------------------------------------------------------------------|

Verse

e|-----------------------------------------------------|
b|-----------------------------------------------------|
G|-----------------9--9--9--9--14-14-14-14-14-14-14-14-|      X4
D|--10-10-10-10---10-10-10-10--14-14-14-14-14-14-14-14-|
A|--12-12-12-12----------------------------------------|
E|-----------------------------------------------------|

chorus
e|-----------------------------------------------------|
b|-----------------------------------------------------|
G|-----------------9--9--9--9--14-14-14-14-14-14-14-14-|      X4
D|--10-10-10-10---10-10-10-10--14-14-14-14-14-14-14-14-|
A|--12-12-12-12----------------------------------------|
E|-----------------------------------------------------|

Bridge
     x23  |
e|--------|--------------------------------------------|
b|--------|--------------------------------------------|
G|--------|-------------12------------12---------------|
D|-9-10---|-------10-------12p10----------12///--------|
A|--------|----------12-----------12-------------------|
E|--------|--------------------------------------------|

solo
e|------------------------|-------------------------------------------------|
B|------------------------|-------------------------8/10~-------------------|
G|----------------5-------|--------------7(8)7-5----------------------------|
D|-------5h7-5h7~---7~----|------5h7-5h7--------7-0-------------------------|
A|-----7---------------5\-|----7--------------------------------------------|
E|-5h8--------------------|5h8----------------------------------------------|

e|10(11)10b1/4----------------------------|---------------------------------|
B|-------------10-------------------------|---------13----------------------|
G|----------------12p9--------------------|12-13-14----14~-7-5--------------|
D|---------------------12p10------10------|-------------------7-5-----------|
A|---------------------------12p0----12p0-|-----------------------7---------|
E|----------------------------------------|---------------------------------|

e|-------------------------|------------------------------------------------|
B|-8-----------8-----------|------------------------------------------------|
G|---9p7---------9p7-------|-------------------14~--------------------------|
D|-------10/12-------10/12-|-------12h14-12-10------------------------------|
A|-------------------------|------------------------------------------------|
E|-------------------------|------------------------------------------------|

and then theres jsut a funni thing whrere he shows off and then back into the chorus
Tap to rate this tab
 
# A B C D E F G H I J K L M N O P Q R S T U V W X Y Z