Song name
# A B C D E F G H I J K L M N O P Q R S T U V W X Y Z

John Mayer - Come When I Call tab

COME WHEN I CALL TABS (by Hans Carrasco)

INTRO (MAIN RIFFS)
e--x--x--x--x--x--x--x--x--x--x--x--x--x--x-x--x--x-x--x--x-x--x--x------|
b--x--5--5--x--5--5--x--3--3--x--3--3--x--3-3--x--3-3--x--3-3--x--3------|
g--x--5--5--x--5--5--x--3--3--x--3--3--x--2-2--x--2-2--x--2-2--x--2------|
D-x--4--4--x--4--4--x--2--2--x--2--2--x--3-3--x--3-3--x--3-3--x--3-------|
A-x--5--5--x--5--5--x--3--3--x--3--3--x--x-x--x--x-x--x--x-x--x--x-------|
E-x-(5)(5)-x-(5)(5)-x-(3)(3)-x-(3)(3)-x--3-3--x--3-3--x--3-3--x--3-------|

INTRO (INITIAL LICK)
e--5b7r5------------------------3----3------------------------3-----------------------|
b---------5b6r5-3~~-~----3--3h5-3------------------------3-5---3----------------------|
g---------------------------5-3----------3b4-5------------------5---3h4-----------0---|
D-----------------------------2--------5--------5---------x-3-----5------5-3~~---0----|
A--------------------------------------------------5-3-2--x-2---------------------5/--|
E-------------------------------------------------------------------------------------|

1ST VERSE "Why won't you come baby...."
LICK 1
e-----------------3---------------------------------------------------------|
b----------5-3--3---------------5--------x----------------------------------|
g-----3h4----------------3h4--5--3h4-x--------------------------------------|
D---5-----------------5------------------x----------------------------------|
A-----------------------------------------5--1-3----------------------------|
E--------------------------------------------------3------------------------|

LICK 2
e--------------------3-----------------------------------------------------|
b------------5--3--3--3--3---------------5---------------------------------|
g-----3h4--5-------------5--3h4p3-----5-----3h4----------------------------|
D--5----------------------------------5-------5-------5--------------------|
A--------------------------------------------------------------------------|
E--------------------------------------------------------------------------|

LICK 3
e---------------------------------------5--------------17----------------|
b--6--3h6p3--3----------------3----3-----------5--x----------------------|
g----------------5--3h5p3-----3h4-3h4--------5---------------------------|
D----------------------------5---------------5----4----------------------|
A-----------------------------------------------5------------------------|
E------------------------------------------------------------------------|

2ND VERSE "You got to know baby..."
LICK 4
e--6--7--6-7--3h5p3-------------------3----------------------------------|
b--5--6----------------------3---------5---------------------------------|
g-------------------------7--3h4------5---3b4-------------4\3------------|
D------------------------------------5------------5----------3\2---------|
A-----------------------------------------------------5-3-2--------------|
E------------------------------------------------------------------------|

LICK 5
e--6-7-6-7--3h5p3h-------6b7----3------------3-----------------------------------|
b--5-6-5-6-------------3-3------------6-3----------------------------------------|
g---------------------------3-----------------5b6-----3b4------------------------|
D--------------------------------------------------------------5-3---------------|
A--------------------------------------------------------------------5-4-3-2-----|
E--------------------------------------------------------------------------------|

LICK 6
e----------------------------------------------------17----------------------------|
b--6-3h6p3-----3-----------3-------------------------------------------------------|
g---------------5-3h5p3----3h4-3h4--------5----------------------------------------|
D--------------------------5--------------5----5-----------------------------------|
A---------------------------------------------5-5----------------------------------|
E----------------------------------------------------------------------------------|

PRE CHORUS "Friday night your busy..."
RIFFS & LICK 7
e--x--------x--x------------------------------------------------------------------|
b--3--------3--x--6p3--------5/6-6-6-6--5/6-6-6-6--5/6-6-6-6--5/-6--8-------------|
g--2--------2--x--------5-4--6/7-7-7-7--6/7-7-7-7--6/7-7-7-7--6/7-----------------|
D-3----2--3--x--------------------------------------------------------------------|
A-x--5----x--x--------------------------------------------------------------------|
E-3--------3--x-------------------------------------------------------------------|

CHORUS "Why won't you come baby...."
LICK 8
e----------------3-3-3-6------------------------------------------------------|
b-----------5-3---3-3-6-3h6p3-------3------6----------------------------------|
g-----3h4-----------5-------------5----3h4---7--------------------------------|
D--5----------------------------------5-------5-------------------------------|
A--5--------------------------------------------------------------------------|
E-----------------------------------------------------------------------------|

MAIN SOLO
e--------------------------------------------------------10-----------------------8-10-8h9p8-------|
b-----8-8~~-------8~~~~10b11-----8h10p8-----------8~~8~~10b12------------------11-8----------------|
g--/9---------9--9-------------------9--------------9-------------------------------------------9--|
D--------------------------------------------------------------------------------------------------|
A--------------------------------------------------------------------------------------------------|
E--------------------------------------------------------------------------------------------------|

e------------8--8--8---8----------------10b12r10~~~~8-10-------------------10b12---10r--|
b--10b11----11-10--8h10p8-----8----------------------------10b11-8~~----x----------x----|
g-----------------------------------9----------------------------------------------9----|
D---------------------------------------------------------------------------------------|
A---------------------------------------------------------------------------------------|
E---------------------------------------------------------------------------------------|

e--11p10-8----8~~~~10b12----15-------15-------15---------------------------------------------------|
b-------------9-----------------------------------------------------8~~8~~\------8~~~~----10b11----|
g-------------------------------------15b16--15b16--15b16----------------/9-----------9-----------9|
D--------------------------------------------------------------------------------------------------|
A--------------------------------------------------------------------------------------------------|
E--------------------------------------------------------------------------------------------------|

e---------------------------------10b11r10~~~~8-10---------------------10----------------------|
b--11b13-------8h10p8--------------------------------10b11r10-8-----------8~~8~~8~~8~~8~~8~~8--|
g------------9---------------9----------------------------------------------9------------------|
D----------------------------------------------------------------------------------------------|
A----------------------------------------------------------------------------------------------|
E----------------------------------------------------------------------------------------------|

e--------------------------15-------------------------------------------------------------15--|
b--15--15--18-18b19-----15-------------15------------------------15-15-18-19------------------|
g----------------------------------18p17-x-17-15-17-15p16-------------------------------------|
D-------------------------------------------------------------------14------------------------|
A---------------------------------------------------------------------------------------------|
E---------------------------------------------------------------------------------------------|

e------------15------------15--------------15-17--15h16p15-----15----15----18b20~~~~18-15--|
b--18b19------18b19--------18b19----------------------------18----15----15-----------------|
g------------------------------------------------------------------------------------------|
D------------------------------------------------------------------------------------------|
A------------------------------------------------------------------------------------------|
E------------------------------------------------------------------------------------------|

+--------palm-mute----------------------------------------------------------------------------------|
e---------------------------------------------------------------------------------------------------|
b--18-15-----------------------------------------------------------------3--19-15-------------------|
g-----------18-17-15-17-15-----------15-18-17-14-17--15h16--2----------18-17-15---------------------|
D---------------------------14-------16---------------------------------3-----------------------17--|
A-------------------------------17------------------------------------------------------------------|
E---------------------------------------------------------------------------------------------------|

e-----------------------18----------18----------18----------18----------18----------6-----6------3--|
b--15b16---3---17b18r18-17b18r18-17b18r18-17b18r18-17b18r18---5b6r6-5b6r6---------------------------|
g-------------2-------------------------------------------------------------------------------------|
D------------3--------------------------------------------------------------------------------------|
A---------------------------------------------------------------------------------------------------|
E---------------------------------------------------------------------------------------------------|

e--------18----------18----------18----------18----------18--------6------6-----3---14-14--|
b--17b18r18-17b18r18-17b18r18-17b18r18-17b18r18-5b6r6-5b6r6-------14-14--------------------|
g------------------------------------------------------------------------------------------|
D------------------------------------------------------------------------------------------|
A------------------------------------------------------------------------------------------|
E------------------------------------------------------------------------------------------|

e-------------------------------------------------------------------------------------|
b--3/4-3------------------------------------------------------------------------------|
g--4/5-4--5----3b4-------------4-5-----3b4--------------------------------------------|
D------------5--------5----------5-4-5------------------------------------------------|
A------------------------5-3-2--------------------------------------------------------|
E-------------------------------------------------------------------------------------|

2ND PRE CHORUS "Keep the motor running..."
e--x---x-x---x-x----------------------------------------------------------------------|
b--3---x-3---x-3---5/6-6-6-6--5/6-6-6-6--5/6-6-6-6------------------------------------|
g--2---x-2---x-2---6/7-7-7-7--6/7-7-7-7--6/7-7-7-7---5--------------------------------|
D-3---x-3---x-3------------------------------------------------8--5-------------------|
A-x---x-x---x-x-----------------------------------------------------------------------|
E-3---x-3---x-3-----------------------------------------------------------------------|

2ND CHORUS "Why won't you come baby...."
LICK 9
e--------3------6b7-6b7-3h5p3----3--------------------------------x---------|
b--3-5-----5-----------------------5--------6-3-----------------------5-----|
g---------------------------------------------------6-5-3-----------6--5----|
D-----------------------------------------5-----------------5-3----5--4-----|
A-----------------------------------------------------------------5-6--5----|
E------------------------------------------------------------------------5--|

LICK 10
e------------------------------------------------------------------------|
b------------------------------------------------------------------------|
g---------------------3h6---------------------3-5b6r5-3---------3--------|
D-----3-5-----3-5------------3-5-----3-5----------------5-3----2---------|
A--5-------5--------------5--------5----------------------------5-3------|
E------------------------------------------------------------------------|

LICK 11
e---------------------------------------------------------6-3--------------------6-x---------------|
b---------------------------------------6-3--------------------------------------5-5---5--4---3----|
g----------------------3-5h6-5-3----------6-5-3-----------6-5-3------------6-5---5--4---3----------|
D------3-5-----3-5----------------5----------------5----------------5-3--------4---4--3---2--------|
A--5--------5---------------------------------------------------------------5-----5---5--4---3-----|
E----------------------------------------------------------------------------------(5)-(5)(4)-(3)--|

ENDING
e--6--3h5p3----3------------3-3-3----------10-10-10-10-10...------|
b--5-----------5---------------5-3-3----------10-10-10-10-10...---|
g-------------------------3h4-5-4-3h4--------9--9---9---9---9...--|
D--------------------5---------------------5----------------------|
A-----------------------------------------------------------------|
E-----------------------------------------------------------------|
Tap to rate this tab
# A B C D E F G H I J K L M N O P Q R S T U V W X Y Z