Song name
# A B C D E F G H I J K L M N O P Q R S T U V W X Y Z

John Mayer - I Dont Trust Myself With Lovin You tab

Help us improve GuitareTab! Take a short survey!
John Mayer
I Don't Trust Myself (With Loving You)
Continuum

intro (clean guitar) (guitar 2)
------3-3-3-3----8--8--8--8----|
-3-3--5-5-5-5---10--10-10-10---|
-5-5--5-5-5-5---10--10-10-10---|
-5-5---------------------------|
-------------------------------|
-------------------------------|

intro (guitar 1) the solos pretty easy to figure out if u cant figure it out im sure 
have it tabbed its in the a pentatonic scale i think

bridge (who do you love..)
---------------------------------------------------|
---------------------------------------------------|
-9-10--9-10----4-5-4-5-4-5-4-5-4-5-4-5-------------|
10-10-10-10----5-5-5-5-5-5-5-5-5-5-5-5-------------|
---------------------------------------------------|
---------------------------------------------------|


solo
----------------------------------------------------------|
----------------------------------------------------------|
-------------------5--------------------------7b-7-5------|
---------5h7-5h7-----7---------------5h7-5h7---------7----|
--3-5s7----------------7s5s3----3-5s7-----------------7---|
-5----------------------------5---------------------------|


----------10b-----------------------------8---------------|
-8s10---------10-8-5---------------8-9-10---10------------|
---------------------7b-7p5---5----------------7b-7-5-----|
----------------------------7---7---------------------7---|
---------------------------------7----------------------7-|
----------------------------------------------------------|

---------------------------------------------------|
--8p5-------8p5-------------5--------8h10----------|
------7-5-7-----7b-5-7---5h7--7b-7-5---------------|
---------------------------------------------------|
---------------------------------------------------|
---------------------------------------------------|

repeat the bridge part

and the organ solo 3:50 (it just repeats itself)
-----------------------7---------|
----8-10-10-10-10-8-10---8-------|
--9------------------------9-----|
---------------------------------|
---------------------------------|
---------------------------------|

he plays this part a lil diff every time u should be able to figure it out
---s---------------------------|
---s-----15b-15b--13-----------|
---------------------14--------|
-------------------------------|
-------------------------------|
-------------------------------|

thats it have fun
Related for I Dont Trust Myself With Lovin You tab