Guitaretab - guitar tabs
Song name
# A B C D E F G H I J K L M N O P Q R S T U V W X Y Z

John Mayer - Im Gonna Find Another You tab

Iím Gonna Find Another You
By John Mayer
Tabbed By Daniel Aramaki


INTRO
e|---------5-------5---------------------------------------------|
B|-------5-------7-----------------5---------------2---------5---|
G|-----6-------6-----------6-----6---------2-----2---------5-----|
D|-----------------------7-----7---------2-----2---------6-------|
A|---------------------7---------------4---------------7---------|
E|---------------------------------------------------------------|

VERSE I
e|-------------5--------------------5----------------------------|
B|----------------5--------------------5-------------------------|
G|----------6--------6-----------6--------6----------------------|
D|-------7--------------------7----------------------------------|
A|---------------------------------------------------------------|
E|----5--------------------5-------------------------------------|

e|---------------------------------------------------------------|
B|-------------5-------------------5-----------------------------|
G|----------6-----6-------------6-----6--------------------------|
D|-------5-----------5-------5-----------5-----------------------|
A|---------------------------------------------------------------|
E|----5-------------------5--------------------------------------|

e|---------------------------------------------------------------|
B|--------------10-----------------------------------------------|
G|-----------7------7-------7----7--------7----------------------|
D|--------7------------7----7h9--7---7----7----------------------|
A|----/9-----------------------------7h9-----9--7----------------|
E|---------------------------------------------------------------|

e|--------------------------5------------------------------------|
B|-------------7-----------7--7----------------------------------|
G|----------5-----5-------5-----5----6---------------------------|
D|-------7-----------7--------------7--7-------------------------|
A|----6----------------------------5-----6-----------------------|
E|---------------------------------------------------------------|

e|---------------------------------------------------------------|
B|-------------5---------------------2------2--------------------|
G|----------6-----6-----------------2----2-----------------------|
D|-------7-----------7---------6---6-----------------------------|
A|--------------------------4------------------------------------|
E|----5------------------2---------------------------------------|

e|-------------2-------------------------------------------------|
B|-------------------3-------------------------------------------|
G|----------4-----4-------------7--------------------------------|
D|-------4-------------------------6-----------------------------|
A|----2-------------------7--7--------7--------------------------|
E|---------------------------------------------------------------|

e|---------------------------------------------------------------|
B|----------5-------------------------------------------5--------|
G|----------6------------------------------------------5---------|
D|----------7----------7----7---7---7-------7-----7---6----------|
A|-----------------4---7h9-9----8--8----7-7-7ó7/9----7-----------|
E|----5--5------7------------------------------------------------|

Verse 2 is pretty much just the same except for it isnít picked.

Intro to Bridge

e|---------------------------------------------------------------|
B|----------5----------------------------------------------------|
G|----------6----------------------------------------------------|
D|----------7----------7----7---7---7-------7----------7---------|
A|-----------------4---7h9-9----8--8----7-7-7ó---5ó7/9---9/7--5--|
E|----5--5------7------------------------------------------------|

Bridge
[ Tab from: http://www.guitaretab.com/j/john-mayer/78016.html ]
 	When I was your lover
	No one else would do
	If Iím forced to find another     
e|------7---------------2----------------------------------------|
B|------7---------------2----------------------------------------|
G|------7---------------2----------------------------------------|
D|------9---------------4----------------------------------------|
A|------9---------------4----------------------------------------|
E|------7---------------2----------------------------------------|

	I hope she looks like you
e|------7---------------------------------------------------------|
B|------7---------------------------------------------------------|
G|------8---------------------------------------------------------|
D|------7---------------------------------------------------------|
A|------9---------------------------------------------------------|
E|------7---------------------------------------------------------|

	Yeah and sheís nicer too
e|------0-------x-------x-----------------------------------------|
B|------0-------2-------3-----------------------------------------|
G|------1-------2-------4-----------------------------------------|
D|------2-------2-------2-----------------------------------------|
A|------2-------x-------x-----------------------------------------|
E|------0-------0-------0-----------------------------------------|

Verse 3 is the same as the 2nd except for the last part.


Now Iím gonna dress myself for two
e|----------------------------------------------------------------|
B|---5--------------------3---2-----------------------------------|
G|---6-------------------3----------------------------------------|
D|---7---------------2--2-----------------------------------------|
A|---x------------------------------------------------------------|
E|---5-------------2----------------------------------------------|

Once for me and once for some one new
e|---------2------------------------------------------------------|
B|---------3---------------5--------------------------------------|
G|---------4---------------7--------------------------------------|
D|-----4---4---------------6--------------------------------------|
A|---2-----2-----------7---7--------------------------------------|
E|-------------------0--------------------------------------------|

Iím gonna do some things you wouldnít let me do,  
e|---------------------------2------------------------------------|
B|----------5----------------2------------------------------------|
G|----------4----------------3------------------------------------|
D|-------5--5----------------2------------------------------------|
A|-----4----4------------4---4------------------------------------|
E|--------------------2------2------------------------------------|

 Oh				Iím gonna find another you
e|---------2------------------------------------------------------|
B|---------3----------5-------------------------------------------|
G|---------4----------7-------------------------------------------|
D|------4--4----------6-------------------------------------------|
A|----2----2----------7-------------------------------------------|
E|--------------------0-------------------------------------------|

Outro
e|---------5-------5---------------------------------------------|
B|-------5-------7-----------------5---------------2-------------|
G|-----6-------6-----------6-----6---------2-----2---------------|
D|-----------------------7-----7---------2-----2-----------------|
A|---------------------7---------------4-------------------------|
E|---------------------------------------------------------------|


e|--------------------------5------------------------------------|
B|-----5----7---------------5------------------------------------|
G|----5--------5---7---5----5h6----------------------------------|
D|---6----------------------5------------------------------------|
A|--7-----------------------7------------------------------------|
E|--------------------------5------------------------------------|



| /  slide up
| \  slide down
| h  hammer-on
| p  pull-off
| ~  vibrato
| +  harmonic
| x  Mute note

Related for Im Gonna Find Another You tab