Guitaretab - guitar tabs
Song name
# A B C D E F G H I J K L M N O P Q R S T U V W X Y Z

John Mayer - In Your Atmosphere Live tab

-------------------------------------------------------------------------------
		    In Your Atmosphere (live) – John Mayer
-------------------------------------------------------------------------------
Tabbed by: Stephen Krotseng
Email: rccollector13@gmail.com

Tuning: low to high E B E F# B E

This was tabbed using the Where The Light Is DVD as a guide. I am confident that this is
correct. Watch his performance to get a better idea of his strumming patterns and
and if you think I’ve made a mistake feel free to email me and tell me what you think 
be changed.

Here’s a video of John’s performance: http://www.youtube.com/watch?v=fMVQ1synlaU

Intro

e|---+12-------------------------+12-----------------------------------------|
B|---+12------------0------------+12--------0-----0h9~p7---------------------|
G|---+12--0---0-----0h9~p7-------+12----0-----0---0--------------------------|
D|--------------0h7------------0--------------0h7----------------------------|
A|---------------------------0-----------------------------------------------|
E|-0--------5--------------0--------------5----------------------------------|

e|---------------------------------------------------------------------------|
B|--------+12---------0---------------------+12--------0-----0---------------|
G|--------+12----0-----------0h9~p7---------+12---0----------0h9~p7----------|
D|-----0-------0---------0h7--------------0-----0--------0h7-----------------|
A|---0----------------------------------0------------------------------------|
E|-0---------------5------------------0-------------5------------------------|

e|------------------------------------------+12------------------------------|
B|--------+12---------0---------------------+12--------0-----0h9~p7----------|
G|--------+12----0-----------0h9~p7---------+12---0--------------------------|
D|-----0-------0---------0h7--------------0-----0--------0h7-----------------|
A|---0----------------------------------0------------------------------------|
E|-0---------------5------------------0-------------5------------------------|

e|----------------------------------------------------------------0----------|
B|--------+12---------0------0---------------+12-------0---------------------|
G|--------+12----0-----------0h9~p7----------+12---0---------0h9-------------|
D|-----0-------0---------0h7--------------0------0-------0h7-----------------|
A|---0----------------------------------0------------------------------------|
E|-0---------------5------------------0--------------5-----------------------|

Verse
“I don’t think I’m gonna go to LA anymore…”

e|---+12--------0------------+12----------------0----------------------------|
B|---+12--------0------------+12---------------------------------------------|
G|---+12--0-----0------------+12--0---0-----0h9------------------------------|
D|--------------0--strum----------------0h7-------------do this twice--------|
A|--------------x------------------------------------------------------------|
E|-0--------5---5--------0-0--------5----------------------------------------|

“I don’t know what it’s like to land with…”

e|---+12--------0----------0---0---0--0--0----------0--0--0--0---------------|
B|---+12--------0----------0---0---0--0--0----------0--0--0--0---------------|
G|---+12--0-----0----------10--0---9--0--3----------7--7--9--9---------------|
D|--------------0--strum---9---0---7--0--2-strum----5--5--7--7---------------|
A|--------------x----------x---0---x--0--x----------x--x--x--x---------------|
E|-0--------5---5----------9---0---7--0--2----------5--5--7--7---------------|

Interlude
[ Tab from: http://www.guitaretab.com/j/john-mayer/179424.html ]
e|---+12-------5-5-5-5-5----4-4-----0-0--0--0--0----0-0----------------------|
B|---+12-------7-7-7-7-7----5-5-----0-0--0--0--0----0-0----------------------|
G|---+12--0--------0--------x-x-----7-7--7--7--7----5-5----------------------|
D|-----------------0--------0-0-----5-5--5--5--5----4-4----------------------|
A|--------------------------0-0---------------------0-0----------------------|
E|-0--------5------------0-------5----------------0--------------------------|

e|---5-5-5-5--5----4-4----------------0--------------------------------------|
B|---7-7-7-7--7----5-5----------------0--------------------------------------|
G|-------0---------x-x-----0------0h9----------------------------------------|
D|-------0---------0-0--------0h7--------------------------------------------|
A|-----------------0-0-------------------------------------------------------|
E|-5-------------0------5----------------------------------------------------|

Chorus

“I’m gonna steer clear…”

e|-0--------0---0--0----0-----------------------------------------------------|
B|-0--------0---0--0----0-----------------------------------------------------|
G|-3--------10--10-10---9-----------------------------------------------------|
D|-2-strum--9---9--9----7--strum----------------------------------------------|
A|-x--------x---x--x----x-----------------------------------------------------|
E|-2--------9---9--9----7-----------------------------------------------------|

“Burn up in your atmosphere…”

e|-0--------0---0--0----0-----------------------------------------------------|
B|-0--------0---0--0----0-----------------------------------------------------|
G|-3--------10--10-10---9-----------------------------------------------------|
D|-2-strum--9---9--9----7--strum----------------------------------------------|
A|-x--------x---x--x----x-----------------------------------------------------|
E|-2--------9---9--9----7-----------------------------------------------------|

“Cause I’d die if I saw you…”

e|-----------0---0---0--0--------------------0--0----0--0------0--0--0--0----|
B|-----------0---0---0--0--------------------0--0----0--0------0--0--0--0----|
G|-5---------10--10--9--9--------------------5--7----5--7------7--7--9--9----|
D|-4-strum---9---9---7--7----see you there…--4--5----4--5------5--5--7--7----|
A|-x---------x---x---x--x--------------------x--x----x--x------x--x--x--x----|
E|-4---------9---9---7--7--------------------5--5----5--5------5--5--7--7----|

Bridge

e|-0-0-0---0---------0---------0---------------------------------------------|
B|-5-7-9---12--------10--------5---------------------------------------------|
G|-x-x-x---10--------10--------3---------------------------------------------|
D|-0-0-0---0--strum--0--strum--0--strum--------------------------------------|
A|-0-0-0---x---------x---------x---------------------------------------------|
E|-0-0-0---10--------9---------5---------------------------------------------|

Repeat this twice, then on the third time end with

e|--0----0--0--------0----0--0-----------------------------------------------|
B|--4/5--5--4--------4/5--5--5-----------------------------------------------|
G|--3----3--3-strum--3----3--3-----------------------------------------------|
D|--0----0--0--------0----0--0-----------------------------------------------|
A|--x----x--x--------x----x--x-----------------------------------------------|
E|--5----5--5--------5----5--5-----------------------------------------------|

Song Order:

Intro
Verse
Interlude
Verse
Chorus
Verse (shortened, no singing)
Bridge
Verse
Chorus

| /  slide up
| \  slide down
| h  hammer-on
| p  pull-off
| ~  vibrato
| +  harmonic
| x  Mute note
===============================================================================
Related for In Your Atmosphere Live tab
×
Best way to learn
"In Your Atmosphere Live"