Song name
# A B C D E F G H I J K L M N O P Q R S T U V W X Y Z

John Mayer - Human Nature tab

Help us improve GuitareTab! Take a short survey!
Here's TAB of John Mayer's version to Human Nature which he played
at Michael Jackson's funeral. I began from GypsyFire's work on his
intro and then added some of the soloing that Mayer does throughout.
(http://www.twitter.com/johncmayer) He repeats many licks for emphasis,
which I don't notate each time. I mostly put each new phrase "in order
of appearance."
If you can open two windows on a large enough computer monitor
(or maybe print the TAB out the old fashioned way and set it in front
of you) I recommend playing the video and watching both the video and
the TAB. If a lick is stumping you, go back a line or two and play a
bunch of phrases in a row and I bet you'll find it again quickly.


----------------------------------------------------------------------------5-----------|
---3------------------------------------------------3-------5-------------5-------------|
-/4-----6------2h4--2----------------------------4-------6---------7--------7--6--4b5r4-|
---------------------------/4--2--------------------------------------------------------|
------------------------------------5-----2p0-------------------------------------------|
----------------------------------------------3-----------5-----------------------------|

----------------------------------------------------------------------------------------|
-----3-------5-------------------------------------3-------5----------------------------|
-----4-------6-------/4--2------------------------4-------6----------4----6\4p2---4---2-|
------------------------------4---2-----------------------------------------------------|
----------------------------------------2-----------------------------------------------|
-3-----------5---------------------------0---3------------5-----------------------------|

-------------------5-------------------------------------------------5---------------|
-----3------5-----5h7--5--------------------3------5-----5h7---7p5--5----------------|
-----4------6---------------7--6--4b5r4----4------6----------------------7---6--7p6--|
-------------------------------------------------------------------------------------|(7)
-------------------------------------------------------------------------------------|
-3---------5-----------------------------3----------5--------------------------------|

"this is the beginning of mayers version today. its not exact i took some of his stuff
and added some of my own. use your thumb on the low E string i find it the easiest to
get those low notes and keep the chord. you can play along to this tab on my profile
i uploaded the mp3 so you can practice...the rhythm is pretty free"

-- GypsyFire http://www.ultimate-guitar.com/forum/showthread.php?t=1158334


:52 secs or so
(where orchestra 1st comes in full)
1:18
------10----10-----------------------------------------------------------------|
--------------------------------------------3-5br3h5p3-------------------------|
-----------------4/7\5----2h4-2----------2h4-----------------------------------|
-------------------------------/4\2--------------------------------------------|
-------------------------------------------------------------------------------|
-------------------------------------------------------------------------------|


1:42 Does He Do Does He Do
--------------------------------------------------------------------------------|
-3-5----------------------------------------------12-14b-r-----15-15-15-17-15---|
-4-6--11-9---------------------7--7--7h9-7----------------14-----------------16-|
----------12-11-12-11-9-7-------------------9-----------------------------------|
--------------------------------------------------------------------------------|
--------------------------------------------------------------------------------|
Me That Way Me That Way


2:48
--------------------------------------------------------------------10\--10\-|
---15-14----------------------------------15-17br15-----12h14brbr------------|
-16-----14--16-14-----------4br2h4---14h16----------------------14-----------|
----------------16--14-------------------------------------------------------|
-----------------------------------------------------------------------------|
-----------------------------------------------------------------------------|


(*from a fullstep bend)
[Gets a pick]3:06
-----------------------15br12-15b----10-10h12p10---12br10-12\---------12b10-|
b11r-9--9------------------------------------12-----------------------------|
------10----------------------------------------------------21br19-21-------|
----------------------------------------------------------------------------|
----------------------------------------------------------------------------|
----------------------------------------------------------------------------|

(*The release FROM a bend is trademark Mayer and he'll use something similar
at the ending to get what I call that teardrop tone.)


By the way, that's a good observation GypsyFire makes about the thumb on the
low E. Mayer pretty much holds to traditional classical guitar style in finger
picking, where you use your thumb (P, from PIMA) for the bottom three strings.
And then your index, middle and ring fingers get one string each. But don't try
to fixate on that part too much. Play whatever comes natural and there's a very
good chance you'll fall into something very close to what he's already doing.

http://yakmilk.livejournal.com/49176.html
Related for Human Nature tab