Song name
# A B C D E F G H I J K L M N O P Q R S T U V W X Y Z

John Mayer - Free Fallin tab

-------------------------------------------------------------------------------
Free Fallin - John Mayer
-------------------------------------------------------------------------------
Tabbed by: bkelly2028@gmail.com
Email: bkelly2028@gmail.com

Tuning: Standard, Capo 3


This is a far more involved version than any other tab out there at the moment.
For the verses and chorus's that are finger plucked,
there are about 3 different licks or variations that John plays.
Try to alternate or cycle between all 3, depending what fits where
with the lyrics. play around with it and have fun. Any comments,
good or bad, please email me. This is my first tab so
sorry if its not the best layout. If anyone is have trouble
and would like me to post a youtube video of me playing it,
let me know.

Intro

e|--------------------------------------------------------------------------|
B|----3------------------3--3---2---------2^3----------3^2--0----0*---------|
G|-------2---------------2--2---2-------2------------2------0------0*-------|
D|----0------0------------------2-----2------------0------------------------|
A|------------------------------0---0---------------------------------------|
E|---------------0^3-----3--2-------------------2-----------3--3*-----3*----|

e|--------------------------------------------------------------------------|
B|---0--3-----2------2/3--------3^2----------0^3---2------2/3---------------|
G|---0--0-----2------2--------2-----2--------------2------2-----------------|
D|--------------------------2-------------0---------------------------------|
A|---------0*-0---0--------------------------------0---0--------------------|
E|---3--3------------------------------3------------------------------------|


Verse and Chorus Variation 1

         +                           +                      +
e|--------------------------------------------------------------------------|
B|-----3----3------3*---------3---3-----2---3----2^3------3---3-----3*------|
G|-----2----2---------2*------2---2-----2-----------------2---2-----2*------|
D|--------------------------------------2---------------0-------------------|
A|--------------------------------------0-----0-----------------------------|
E|--2-------3---3*------3*----3---2--------------------2------3---3*--3*----|


          +
e|--------------------------------------------------------------------------|
B|--3--3-----2-----2^3------------------------------------------------------|
G|--4--2-----2--------------------------------------------------------------|
D|-----------2--------------------------------------------------------------|
A|-----------0--0-----------------------------------------------------------|
E|--3--2--------------------------------------------------------------------|


Verse and Chorus Variation 2


         +                           +                      +
e|-----------------5------------------------------------------------5-------|
B|-----3----3---------3-------3---3-----2---3----2^3------3---3-------3-----|
G|-----2----2-----------2-----2---2-----2-----------------2---0-------------|
D|--------------------------------------2---------------0-------------------|
A|--------------------------------------0-----0-----------------------------|
E|--2-------3---3-------------3---2--------------------2------3---3-------3-|

e|--------------------------------------------------------------------------|
B|--3--3-----2^3------------------------------------------------------------|
G|--0--2-----2--------------------------------------------------------------|
D|-----------2--------------------------------------------------------------|
A|--------0--0--------------------------------------------------------------|
E|--3--2--------------------------------------------------------------------|


Verse and Chorus Variation 3

         +                          +
e|--------------------------------------------------------------------------|
B|-----3----3------3*---------3---3-----2------2----2---3---0-----0*--------|
G|-----2----2---------2*------2---2-----2-----2-----2-------0-------0*------|
D|--------------------------------------2----2------------------------------|
A|--------------------------------------0---0-------------------------------|
E|--2-------3---3*------3*----3---2-----------------2-------3---3*----3*----|

e|-------------------------0^2----------------------------------------------|
B|--0---3-----2-----2^3----3----3--3----3-------3---3--------2-------2^3----|
G|--0---0-----2------------2-------0------0-----0---2--------2--------------|
D|------------2----------------------------------------------2--------------|
A|---------0*-0--0--------------------------------------0----0---0----------|
E|--3---3--------------------------3--3-----3---3---2-----------------------|

e|--0^2----------------------------------------------|
B|--3----3--3----3-------3---3--------2-------2^3----|
G|--2-------0------0-----0---2--------2--------------|
D|------------------------------------2--------------|
A|-------------------------------0----0---0----------|
E|----------3--3-----3---3---2-----------------------|

Strumming Sequence

Listen to the song to figure out the strum pattern, it's very easy

e|---0---0(5)--0---0--------------------------------------------------------|
B|---3---3-----3---3--------------------------------------------------------|
G|---2---0-----2---2--------------------------------------------------------|
D|---0---0-----0---2--------------------------------------------------------|
A|---0---0-----0---0--------------------------------------------------------|
E|---2---3-----2---0--------------------------------------------------------|

************************************

| / slide up
| \ slide down
| ^ hammer-on/pull off
| + slap
| * play notes soft and faintly
| () Alternate chord, only play this one sometimes


************************************
Tap to rate this tab
# A B C D E F G H I J K L M N O P Q R S T U V W X Y Z