John Mayer - Route 66 tab

John Mayer - Route 66 (solo)
From Cars Soundtrack
Standard Tuning


e|----------------3---------------------------------------------------------|
B|----------3-5-3---3-6-----------5-3-------6-------------------------------|
G|-------/4-------------5/6/5-3---5-3-------5brp3--------3b-----------------|
D|---2-5------------------------5-----5-3-5--------5-3-5----5p3-------------|
A|-5-------------------------------------------------------------5----------|
E|--------------------------------------------------------------------------|

e|---------3---3-5p3h3p3---3-3-8b-8-6-8-----6b-8brp6---6-------3------------|
B|-3-3-6-6---6-----------6--3-----------8-8----------8---8p6-3-3------------|
G|---------------------------------------------------------------5-3--------|
D|-------------------------------------------------------------------5------|
A|--------------------------------------------------------------------------|
E|--------------------------------------------------------------------------|

e|---------------------------------------3----------------------------------|
B|---------------------------------------3----------------------------------|
G|---------5-7-------5bp3-------3b----------5-5-----------------------------|
D|-----4-7-------2-5------5-3-5----5p3------4-4-----------------------------|
A|-/55---------3-----------------------5----5-5-----------------------------|
E|--------------------------------------------------------------------------|


This is the first half of the solo, will finish it soon!
Tap to rate this tab
 
# A B C D E F G H I J K L M N O P Q R S T U V W X Y Z