Song name
# A B C D E F G H I J K L M N O P Q R S T U V W X Y Z

John Mayer - If I Ever Get Around To Living tab

Standard Tuning Capo 5

This is just the first 1:30 of the song since there is only a sample.



Intro/Verse
e |-----------------------------------------------------|
B |--------0------------0-------------0-----------0-----|
G |------5---5-------5----5---------2---2-------2---2---|  
D |----5-------5---5--------5-----2-------2---2------2--|
A |--3-----------3--------------0-----------0-----------|
E |-----------------------------------------------------|

Chorus
e |-------------------|
B |--7---8---7---8----|
G |--7---5---7---5----|
D |--7---5---7---5----|
A |--5---x---5---x----| 
E |------5-------5----|


Riff at 1:23

e|------------------------------|
B|--3~--1-----------------------|
G|--------4-2--4p0--2~--4p0--2~-|
D|------------------------------|
A|------------------------------| 
E|------------------------------|
Tap to rate this tab
 
# A B C D E F G H I J K L M N O P Q R S T U V W X Y Z