Song name
# A B C D E F G H I J K L M N O P Q R S T U V W X Y Z

John Mayer - Paper Doll tab

Hey,

This is my first tab so bare with me. Maybe its not 100% correct but were 
getting there :) I will keep updating it.

~ (Vibrato)
p (pull off)
* (Hammer on) or if you like you could just pick it.
          
e------------------------------------------|
B--------12p10-----------------12p10-------|
G-------------12*--------------------12*---|
D-----------------9~--9~-------------------|
A---10~-----------10~-10~------------------|
E---------------------------0--------------|
                            (Hit the E and let it ring out)

e-----------------------------------------------|
B-----------------7------------12p10------------|
G------------------7----------------12*---------|
D---9~--9~----------7-9-----------------9~--9~--| After this you go back to the start
A---10~-10~---------------10~-----------10~-10~-|
E-----------(0)-5*------------------------------|
            (If you couldnt get the E to ring out feel free to hit it now)

Enjoy
Tap to rate this tab
 
# A B C D E F G H I J K L M N O P Q R S T U V W X Y Z