John Norum - In Your Eyes tab

                    "In Your Eyes" by John Norum
                       "Face The Truth album"

"Guitar Riffs (Solos my version is Norum style in studio and live. not disponible, is private me)"

Tabulated by: Renan Vickysider (lucacarrico@hotmail.com) 
brazilian guitar Europe cover

Intro

|--------0------------0--------------0------------0------|
|-----6-----6------6-----6-------6------6------3-----3---|
|--7------------5-------------3-------------0------------|
|--------------------------------------------------------|
|--------------------------------------------------------|
|--------------------------------------------------------|

|-----------------------------------------------------|
|---------------1-------------------------0-----------|
|--------0---------0-----0----------3--------3-----3--|
|-----2-----2---------2----------3-----3--------3-----|
|--3--------------------------1-----------------------|
|-----------------------------------------------------|

|-----------------------------------------------------|
|---------------1-------------------------------------|
|--------0---------0-----0----------3---------3-------|
|-----2-----2---------2----------3---------3----------|
|--3--------------------------1---------0----------3--|
|-----------------------------------------------------|

     Dm	     	      Bb/D (xx0331)
	You always promised me
     Dm	     	         Bb/D	     Dm
	That you would always be right here 
	     	     Bb/D
	The summer is gone you see
     Dm	     	      Bb/D		        C
	Here comes the winter, you're not there

 			       Bb
	I should never let you go
     C			      Bb  Am   C
	coz you're a part of me

          Dm      Bb		  C     F
In your eyes,      no one could ever see
	     Dm      Bb     Gm   	     C
That you're lonely baby, please tell me why
        Dm       Bb	     C            F
In your eyes,    you may pretend you're free
	    Gm					 
But I know you so well, 
 C                         Dm		intro
love will come back you'll see

 
    Dm	     	              Bb/D
	The things that you've done for me
    Dm	     	   Bb/D              Dm
	I just look back but you were gone
	     	      Bb/D
	Remember those things that we share
    Dm	     	  Bb/D	     C
	Only your memory lingers on
			       Bb
	I don't want to fall apart
    C			     Bb  Am   C
	Please come back to me

 

         Dm        Bb		   C    F
In your eyes,      no one could ever see
	     Dm     Bb      Gm	      C
That you're lonely baby, please tell me why
          Dm     Bb	     C            F
In your eyes,    you may pretend you're free
       Gm		      			 
But I know you so well, 
C                          Dm					
love will come back you'll see

SOLO:  Fm   C#   D#   A#
       Fm   C#   A#   D#
       Fm   C#   D#   A#
       Fm   C#   A#   D#

         Dm        Bb		   C    F
In your eyes,      no one could ever see
	     Dm     Bb      Gm	      C
That you're lonely baby, please tell me why
          Dm     Bb	     C            F
In your eyes,    you may pretend you're free
	Gm			C        Dm	 
But I know you so well, 

In Your Eyes
				
Tap to rate this tab
 
# A B C D E F G H I J K L M N O P Q R S T U V W X Y Z