Song name
# A B C D E F G H I J K L M N O P Q R S T U V W X Y Z

John Williams - Star Wars - The Imperial March tab

sorry if i missed some thing this is my first tab


e--------------------------------------------------------------|
b--------------------------------------------------------------|
g--------------------------------------------------------------|
d-----------------------2-2-2-3--------------------------------|
a-0-0-0---3-0----3-0------------3------3-0---------------------|
E-------1------1------------------4--1-------------------------|

e-------------------------------------------------------------|
b-------------------------------------------------------------|
g-------------------------------------------------------------|
d-------------------------------------------------------------|
a-12-0-0-12-11-10-9-8-9---------------------------3-0---3-0---|
E-----------------------6--11-10-9--8-7-8--1--4-1-----1-------|

e----------------------------------------------------|
b----------------------------------------------------|
g----------------------------------------------------|
d----------------------------------------------------|
a---------------12-0-0-12-11-10-9-8------------------|
E-1-4-8-5-8-12----------------------6-11-10-9-8-7-8--|

e-----------------------|
b-----------------------|
g-----------------------|
d-----------------------|
a-------3-0---30--------|
E-1-4-1-----1-----------|

have fun playing the imperial march
Tap to rate this tab
# A B C D E F G H I J K L M N O P Q R S T U V W X Y Z