Song name
# A B C D E F G H I J K L M N O P Q R S T U V W X Y Z

John Williams - Home Alone Main Title tab

e----------------------------------------------------------------|
B--9----9----------14--------------------------------------------|
G----10---10----------14----15--13-----10-11-10------8-----------|
D------------------------13--------------------------------------|
A----------------------------------------------------------------|
E----------------------------------------------------------------|

e----------------------------------------------------------------|
B--9----9----------14------11-13-14----11-13-14----11-13-14------|
G----10---10----------14------------13----------13----------13---|
D----------------------------------------------------------------|
A----------------------------------------------------------------|
E----------------------------------------------------------------|

e---------------|
B---------------|
G--11-10-8------|
D---------------|
A---------------|
E---------------|
Tap to rate this tab
# A B C D E F G H I J K L M N O P Q R S T U V W X Y Z