Song name
# A B C D E F G H I J K L M N O P Q R S T U V W X Y Z

John Williams - Jaws tab

-----------------------------------------------------------------------------
			     Jaws - John Williams
-----------------------------------------------------------------------------
Tabbed by: Life is Brutal
Email: DillonTOwnz@Hotmail.com

Tuning: Standard

This is my version of jaws by ear, Based on a Music Sheet from my High School band.

e|-----------------------|----------------------------|
B|-----------------------|----------------------------|
G|-----------------------|----------------------------|
D|-----------------------|----------------------------|
A|-----------------------|----------------------------|
E|--2-3----2-3----2-3----|2-3-2-3-2-3-0-2-2-3-0-2-2-3-|

Play the second part as many times as you like, while increasing in Dynamics(get louder) 
tempo(get faster).
After your as loud as you want, and as fast as you think is good, play This:
e|---------------------|
B|---------------------|
G|---------------------|
D|---------------------|
A|---------------------|
E|-2-3-2-3-2-3-2-3-2-3-|

And then into any random, Loud, Abrupt Chord. I preffer one like these.
e|---|-2-|-3-|
B|---|-2-|-3-|
D|---|-2-|-3-| Or any other kind of "Ugly" Chord. Just make it Sound like
A|-3-|-2-|-3-| a Scream, LOL.
E|-2-|-2-|-3-|
If you have any Questions PM on UG or My Email.
Tap to rate this tab
# A B C D E F G H I J K L M N O P Q R S T U V W X Y Z