Song name
# A B C D E F G H I J K L M N O P Q R S T U V W X Y Z

John Williams - Harry Potter Theme Song tab

John Williams: Harry Potter

For the Tunning... I'm pretty sure it stays normal... So don't have to worry about that unless your Guitar is out of tune.


E---0-3-2-0--7-5--2---0-3-2---3-2--2--
B-0-------------------------0----3---0
G-------------------------------------
D-------------------------------------
A-------------------------------------
E-------------------------------------

E---0--3-2-0--7-10-9-8--5-8-7-6--3-0
B-0----------------------------3---
G----------------------------------
D----------------------------------
A----------------------------------
E----------------------------------

E-3-7--3-7--3-8-7-6--6-7-3-2-0-8-7
B---------------------------------
G---------------------------------
D---------------------------------
A---------------------------------
E---------------------------------

E-3-7--3-7--3-10-9-8--5--8-7-6---3-0
B------------------------------3----
G-----------------------------------
D-----------------------------------
A-----------------------------------
E-----------------------------------

That's all I got up to... Maybe later on I'll get more done. ^^

Hope you like it.
Tap to rate this tab
# A B C D E F G H I J K L M N O P Q R S T U V W X Y Z