Song name
# A B C D E F G H I J K L M N O P Q R S T U V W X Y Z

Johnny Cash - Well Meet Again tab

                         Johnny Cash
                       We'll Meet Again

Tuning: Standard EADBGE


Intro

    C7     A7    Dm7    G7
----0------0------1-----1---|
----1------2------1-----0---|
----3------0------2-----0---|
----2------2------0-----3---|
----3------0------------2---|
------------------------3---|


verses:
    C      E7      Am7     Dm7     F      G
----0------1--------0-------1------1------3-----------|
----1------0--------1-------1------1------0-----------|
----0------1--------0-------2------2------0-----------|
----2------0--------2-------0------3------0-----------|
----3------2--------0-------------(3)-----2-----------|
-----------0----------------------(1)-----3-----------|

Choruses:
    F     Em   F    Em   Am    Am7 
   G
----1-----0----1----0----0------0------3------|
----1-----0----1----0----1------1------0------|
----2-----0----2----0----2------0------0------|
----3-----2----3----2----2------2------0------|
-------------------------0------0------2------|
---------------------------------------3------|
Tap to rate this tab
 
# A B C D E F G H I J K L M N O P Q R S T U V W X Y Z