Song name
# A B C D E F G H I J K L M N O P Q R S T U V W X Y Z

Johnossi - Theres A Lot Of Things To Do Before You Die tab

Starts at: 1:54


e----------3--3-3-------------------------|
b---3h55555-55-5-5p333333/7p0-------------|
g-----------------------------------------|
d-----------------------------------------|
a-----------------------------------------|
E-----------------------------------------|

----------3--3-3--------------------------|
---3h55555-55-5-5p333333/7p0--------------|
------------------------------------------|
------------------------------------------|
------------------------------------------|
------------------------------------------|
Tap to rate this tab
 
# A B C D E F G H I J K L M N O P Q R S T U V W X Y Z