Song name
# A B C D E F G H I J K L M N O P Q R S T U V W X Y Z

Johnossi - Theres A Lot Of Things To Do Before You Die tab

-------------------------------------------------------------------------------
     JOHNOSSI - There's a lot of things to do before you die
-------------------------------------------------------------------------------
Tabbed by: Vautour
Email:     vautour@reapers.de

Tuning:   Standard E



intro pattern:
    Em				                    Em*				  Em**
e |-----------------|-----------------|-----------------|--1--1-1-0-0-----|
B |-----------------|-----------------|-----------------|--0--0-0-0-0-----|
G |-----------------|-----------------|-----------------|--0--0-0-0-0-----|
D |--2--2-2-2-2-2---|--2--2-2-2-2-2---|--2--2-2-2-2-2---|--2--2-2-2-2-----|
A |--2--2-2-2-2-2---|--2--2-2-2-2-2---|--2--2-2-2-2-2---|-----------------|
E |--0--0-0-0-0-0---|--0--0-0-0-0-0---|--3--3-3-3-3-3---|-----------------|
    d   d u d u d      d  d u d u d      d  d u d u d      d  u d u d      (stroke direction)


verse pattern:
    Em                                  G               
e |-----------------|-----------------|-----------------|-----------------|
B |-----------------|-----------------|-----------------|-----------------|
G |-----------------|-----------------|--0--0-0-0-0-0---|--0--0-0-0-0-0---|
D |--2--2-2-2-2-2---|--2--2-2-2-2-2---|--0--0-0-0-0-0---|--2--2-2-2-2-2---|
A |--2--2-2-2-2-2---|--2--2-2-2-2-2---|--2--2-2-2-2-2---|--2--2-2-2-2-2---|
E |--0--0-0-0-0-0---|--0--0-0-0-0-0---|--3--3-3-3-3-3---|--3--3-3-3-3-3---|
  

    C                 D                 Em  
e |-----------------|--2--2-2-2-2-2---|-----------------|-----------------|
B |--1--1-1-1-1-1---|--3--3-3-3-3-3---|-----------------|-----------------|
G |--0--0-0-0-0-0---|--2--2-2-2-2-2---|-----------------|-----------------|
D |--2--2-2-2-2-2---|--0--0-0-0-0-0---|--2--2-2-2-2-2---|--2--2-2-2-2-2---|
A |--3--3-3-3-3-3---|-----------------|--2--2-2-2-2-2---|--2--2-2-2-2-2---|
E |-----------------|-----------------|--0--0-0-0-0-0---|--0--0-0-0-0-0---|



3x intro pattern
C D Em

3x intro pattern
C D Em


verse:
      Em       G           C            D              Em
Well Time,pass by, as I´m laying in my bed beneath the sky
   
    Em                           G                C         D             Em   
   cause when there is so many things that you really wanna do before you die
   
	Em             C              D               Em   
    then you want everything to match before you die


1x intro pattern

	        Em                G                   C             D               Em
Well in my head there´s many friends but I won't love them for what they really are

            Em                    G                  C              D                     Em   	
	You´re scared, oh you´re so scared Yeah you´re scared when you know they´ve travelled far

           C                D               B
	but I know you love to see them travel far

						  Em
	I can see it in your eyes

                                   B
	put your thoughts in a fucking car
	
	                                 C
	Do hit full speed and open your eyes
	
	                  D
	don´t close your eyes
	
                                             Em
	there´s a lot of things to do before you die
	

	
2x intro pattern	


verse:	
sit down, sit on the ground take of your clothes and start digging for your soul
dig deep, dig deeper only worms and roots can stop you from your goal
I´m sick and tired of staring into the wall
I wanna do something fucking special and extraordinary
Put your thoughts in a fucking car.....

solo (didn't figure it out yet)

verse:	
sit down, sit on the ground take of your clothes
and start digging for your soul
dig deep, dig deeper
only worms and roots can stop you from your goal
there´s a lot of things to do before you die


-------------------------------------------------------------------------------
If you find something wrong,
feel free to mail me ;)
Tap to rate this tab
# A B C D E F G H I J K L M N O P Q R S T U V W X Y Z