Song name
# A B C D E F G H I J K L M N O P Q R S T U V W X Y Z

Johnossi - Dead End tab

JOHNOSSI - DEAD END
STANDARD TUNING


CHORDS USED

  E  F# G# B   or  E  F# G# B  B

e-0--X--X--X-------------------------|
B-0--X--X--X-------------------------|
G-1--3--5--8----------------4--------|
D-2--4--6--9-------2--4--6--4--9-----|
A-2--4--6--9-------2--4--6--2--9-----|
E-0--X--X--X-------0--2--4-----7-----|



INTRO:

e---------------------0----|
B----------------4----0----|
G-444444333344443-4-1-1----|
D---------------------2----|
A---------------------2----|
E---------------------0----|

e-0-------------------------0---------------------------------|
B-0-------------------------0----------------------------9----|
G-1----3--5-----5---3----1--1--3--5----5---3--/8-----/11---9--|
D-2-----4--6--6--/4---/2----2---4--6-6--6-4------9------------|
A-2--/4---------------------2-4------6----4-------9--9--------|
E-0-------------------------0---------------------------------|

e-0-----------------------------------------------------------|
B-0-----------------------------------------------------------|
G-1---3-----5--55565-3----3-3---------------------------------|
D-2----4----6---------4---------------------------------------|
A-2-/4---/6------------4-4-4-4--------------------------------|
E-0-----------------------------------------------------------|


VERSE: E F# G# F#

E                         F#       G#
Where you going with your wrecking machine
       F#      E
I just want to help
          F#       G#   F#
When your thoughts surround you


CHORUS: E F# G# F# B E F# G# F# E

E                            F# G#
Up in your head where're you going
              F#    B   E
Where are you going now friend
         F#          G# F#
Fighting against the dead end
Tap to rate this tab
# A B C D E F G H I J K L M N O P Q R S T U V W X Y Z