Song name
# A B C D E F G H I J K L M N O P Q R S T U V W X Y Z

Johnossi - Dead End tab

JOHNOSSI - DEAD END INTRO TAB
STANDARD TUNING


e---------------------------0---------------------------|
B---------------------4-----0-------4-----------4-------|
G-44444-3333-4444-333---4-1-1----3----4-----------6-4---|
D---------------------------2-----------6---6-6---------|
A---------------------------2--4------------------------|
E---------------------------0---------------------------|

e------------------------0--------------------------------------|
B-4/7-----7-7h9p7--------0--------------------------------------|
G-----8-----------9/0----1----1------3------5-55565-3-----3-----|
D-------9----------------2------2------4-------------4---4-4-4--|
A------------------------2--2-----/4------6-----------4-4---4---|
E----------------------0-0--------------------------------------|
Tap to rate this tab
 
# A B C D E F G H I J K L M N O P Q R S T U V W X Y Z