Song name
# A B C D E F G H I J K L M N O P Q R S T U V W X Y Z

Johnoy Danao - Ulan tab

Chord Map:
    D7   G6add9 E7b6(?) Am7  Eaug(E)  Am7*   G    Em7    C     D
E |-x-|  |-x-|  |-x-|  |-5-|  |-0-|  |-0-| |-3-| |-7-| |-3-| |-5-|
B |-3-|  |-3-|  |-6-|  |-5-|  |-1-|  |-1-| |-3-| |-8-| |-5-| |-7-|
G |-5-|  |-2-|  |-7-|  |-5-|  |-1-|  |-0-| |-4-| |-7-| |-5-| |-7-|
D |-4-|  |-2-|  |-6-|  |-5-|  |-2-|  |-2-| |-5-| |-9-| |-5-| |-7-|
A |-5-|  |-2-|  |-7-|  |-7-|  |-2-|  |-0-| |-5-| |-7-| |-3-| |-5-|
E |-x-|  |-3-|  |-0-|  |-5-|  |-0-|  |-x-| |-3-| |-x-| |-x-| |-x-|

  Cmaj7   Bm7     C*   C#m7b5   D*     D7*    E      E7     E7* 
E |-3-|  |-2-|  |-0-|  |-x-|  |-2-|  |-2-|  |-0-|  |-0-|  |-7-|
B |-5-|  |-3-|  |-1-|  |-6-|  |-3-|  |-1-|  |-0-|  |-0-|  |-8-|
G |-4-|  |-2-|  |-0-|  |-4-|  |-2-|  |-2-|  |-1-|  |-1-|  |-7-|
D |-5-|  |-4-|  |-2-|  |-6-|  |-0-|  |-0-|  |-2-|  |-0-|  |-9-|
A |-3-|  |-2-|  |-3-|  |-4-|  |-x-|  |-x-|  |-2-|  |-2-|  |-7-|
E |-x-|  |-x-|  |-x-|  |-X-|  |-x-|  |-x-|  |-0-|  |-0-|  |-x-|

Intro:
          D7 G6add9  E7b6(?) Am7     D7
 |--------x~-|--x~-----x~-----5~-----x~-|
 |--------3~-|--3~-----6~-----5~-----3~-|
 |--------5~-|--2~-----7~-----5~-----5~-|
 |--------4~-|--2~-----6~-----5~-----4~-|
 |--5/7-6-5~-|--2~-----7~-----7~-----5~-|
 |--------x~-|--3~-----x~-----5~-----x~-|

  G6add9 E7b6(?)  Am7*
 |--x~-----0~------0~---|---------------|
 |--3~-----1--0~---1~---|---------------|
 |--2~-----1--1~---0~---|---------------|
 |--2~-----2~------2~---|---------------|
 |--2~-----2~------0~---|------5--7--5~-|
 |--3~-----0~------x~---|--5/7----------|

Prelude:
 G - Em7 - C - D (2x)

Verse:
 G - Em7 - C - D (8x)

Pre-Chorus:
 Cmaj7 - Bm7 (3x)
 Am7* - Bm7 - C* - C#m7b5
 D* - D7* - C* - D*

Chorus:
 G - Bm7 - Am7 - D (3x)

Prelude:
 G - Em7 - C - D (2x)

Chorus:
 G - Bm7 - Am7 -D (6x)

Coda:
 E - E7
 Am7 - D - G - E7* (2x)
 Am7 - D - G6add9

For the original source of the chords, visit:
http://www.johnoydanao.com/
Tap to rate this tab
 
# A B C D E F G H I J K L M N O P Q R S T U V W X Y Z