Song name
# A B C D E F G H I J K L M N O P Q R S T U V W X Y Z

Join The Club - Lunes tab

Title: Lunes
Artist: Join The Club
Album: Nobela

Instrument: Guitar

Tabbed by: Jhake Ass (geraldsviray@yahoo.com)

Tuning: 1/2 Step Down (Eb Ab Db Gb Bb Eb)

Para to sa EX-BAND ko.. hehehe.. keep up the good works.... ^_^ at sa asawa ko... sana magustuhan mo 

ang kantang to... d' bez!!!!!!!!!!!!!!!!!!! \m/

Intro:
Guitar 1:
Eb|----------------|----------------|----------------|----------------||
Bb|----------------|----------------|----------------|----------------||
Gb|----------------|----------------|7---------------|7---------------||
Db|7---------------|7---------------|7---------------|7---------------||
Ab|7---------------|7---------------|5---------------|5---------------||
Eb|5---------------|5---------------|----------------|----------------||
Guitar 2:
Eb|----------------|----------------|7-5-7-/-9-\-7-5-|7-5-7-/-9-\-7-5-||
Bb|----------------|----------------|----------------|----------------||
Gb|4-2-4-/-6-\-4-2~|4-2-4-/-6-\-4-2~|----------------|----------------||
Db|----------------|----------------|----------------|----------------||
Ab|----------------|----------------|----------------|----------------||
Eb|----------------|----------------|----------------|----------------||

Guitar 1:
Eb|---------------------------------||
Bb|----------------------9--11-11---||
Gb|----------------------9--11-11---||
Db|4-4-4-4-4-4--2--2-2---7--9--9----|| (Repeat)
Ab|4-4-4-4-4-4--2--2-2--------------||
Eb|2-2-2-2-2-2--0--0-0--------------||

Eb|---------------------------------||
Bb|---------------------------------||
Gb|6-6-6-6-6-6-6-6-6-7-7-7-7-7-7-7-7||
Db|6-6-6-6-6-6-6-6-6-7-7-7-7-7-7-7-7||
Ab|4-4-4-4-4-4-4-4-4-5-5-5-5-5-5-5-5||
Eb|x-x-x-x-x-x-x-x-x-x-x-x-x-x-x-x-x||
  Listen to the tune na lng kung pano ung strumming.. :)
  Xaka ko n lng update ung guitar 2... nito... :) 

     A
Unang araw 
kay bilis ng galaw 
         D
may kalaliman ang pagtutol sa pag ayaw 
        A
ang kalimutan ka 
kahit na may iba 
         D
at sa muli magbabalik sakin ang lahat 

F#m         E     -E5,F#5..
maaari bang magtanong?? 
F#m         E     -E5,F#5 C#m - D(pause)
dahil labis na rin akong lumalayo 

    A
matatanggap ba ako 
       F#m
kung magbabalik sa iyo 
           D
sakit ng sinapit ay 
       C#m7          F#m
please wag na magtampo 
   A
wala man akong nagawa 
     F#m
nung unang ika'y nawala 
         D
wala sa hinagap kong 
  C#m7      F#m
ako'y mabibigo...... 
         D
wala sa hinagap kong 
  C#m7      F#m.. D - E..
ako'y mabibigo 
 
       A
unang araw 
naninibago ka't 
       D
sa pakiwari ay may katiyakan na 
        A
at sa isang iglap 
mayrong magaganap 
        D
at sa muli magbabalik sakin ang lahat 

F#m         E     -E5,F#5..
maaari bang magtanong?? 
F#m         E     -E5,F#5 C#m - D(pause)
dahil labis na rin akong lumalayo 

    A
matatanggap ba ako 
       F#m
kung magbabalik sa iyo 
           D
sakit ng sinapit ay 
       C#m7          F#m
please wag na magtampo 
   A
wala man akong nagawa 
     F#m
nung unang ika'y nawala 
         D
wala sa hinagap kong 
  C#m7      F#m
ako'y mabibigo...... 
         D
wala sa hinagap kong 
  C#m7      F#m
ako'y mabibigo 

(Palm Mute)
F#5                           D5       E5
wag ka magtaka kung pinilit kong magtanong 
F#5                           D5       E5
basta't sapat na ang nalaman mo na ako ay narito 
F#5                A5                  B5
wag ka magtaka ... waga ka magta ka .. waga ka magtaka.. 
D5               E5(Pause)
wag ka magta ka !!!! 

(SOLO)
   A5                                D5
Eb|----------------|----------------|---------------------------------||
Bb|------------2-2-|------------2-2-|------5-3-2-3-2--------2---------||
Gb|2-/-4-2-4-4-----|2-/-4-2-4-4-----|4-2-4-----------4-2-4~~--2~~~----||
Db|----------------|----------------|---------------------------------||
Ab|----------------|----------------|---------------------------------||
Eb|----------------|----------------|---------------------------------||

   A5                                  D5
Eb|---------------9-9|------------9-9-|---------12-10-9-10-9---------9--|
Bb|10/12-10-12-12----|12-10-12-12-----|12-10-12-------------12-10-12--10|
Gb|------------------|----------------|---------------------------------|
Db|------------------|----------------|---------------------------------|
Ab|------------------|----------------|---------------------------------|
Eb|------------------|----------------|---------------------------------|


   F#m      E5        F#m     E5         F#m      E5        F#m      E5
Eb|------------------|------------------|------------------|------------------|
Bb|10~~~~10-9--9h10-9|10~~~~10-9--9h10-9|10~~~~10-9--9h10-9|10~~~~10-9--9h10-9|
Gb|------------------|------------------|------------------|------------------|
Db|------------------|------------------|------------------|------------------|
Ab|------------------|------------------|------------------|------------------|
Eb|------------------|------------------|------------------|------------------|

(Palm Mute)
F#m         E     -E5,F#5..
maaari bang magtanong?? 
F#m         E     -E5,F#5 C#m - D - E..
dahil labis na rin akong lumalayo 

    A
matatanggap ba ako 
       F#m
kung magbabalik sa iyo 
           D
sakit ng sinapit ay 
       C#m7          F#m
please wag na magtampo 
   A
wala man akong nagawa 
     F#m
nung unang ika'y nawala 
         D
wala sa hinagap kong 
  C#m7      F#m
ako'y mabibigo...... 
         D
wala sa hinagap kong 
  C#m7      F#m
ako'y mabibigo 


Tap to rate this tab
# A B C D E F G H I J K L M N O P Q R S T U V W X Y Z