Song name
# A B C D E F G H I J K L M N O P Q R S T U V W X Y Z

Join The Club - Paano Sasabihin tab

Song:Paano Sasabihin
Album:Nobela(Album Repackage)
Artist:Join the Club
Date Tabbed:January,2007
Guitar Tabber:Ryan Manongdo/16/m/Montalban Rizal
              no_falter0x@yahoo.com(Friendster and YM)

For your questions or suggestions,just Post a Comment or PM me.
 
Gtr.Legends:
/ - slide
~ - let it ring
. - palm muting
p - pull-off
* - artificial harmonics

Gtr.Tuning:Half Step Down Then Drop D(Alternative)

Intro:
Gtr.1
eb|-----------------------------|
Bb|-----------------------------|
Gb|-----------------------------|
Db|-333333-000000-88888-88888---|
Ab|-333333-000000-88888-88888---|
Db|-333333-000000-88888-88888---|

Gtr.2
eb|--------------------------------------------|
Bb|--------------------------------------------|
Gb|--------------------------------------------| 2x
Db|-------------------------------8/10-8-7-8---|
Ab|-3-5-7-8--8/10-8-7-8---3-5-7-8--------------|
Db|--------------------------------------------|

Verse 1:Biglang sakit sa isipan...
eb|-----------------------------|
Bb|-----------------------------|
Gb|-----------------------------|
Db|-333333-000000-88888-88888---|
Ab|-333333-000000-88888-88888---|
Db|-333333-000000-88888-88888---|
    ...... ...... ..... .....

Chorus:Paano sasabihin....
eb|-----------------------------|
Bb|-----------------------------|
Gb|-----------------------------| 2x
Db|-333333-55555-77777-333333---|
Ab|-333333-33333-55555-111111---|
Db|-333333----------------------|

Pre-Verse 2:

Verse 2:Ilalayo ang isipan...
eb|------P----------------------------------------------------|
Bb|------A----------------------------------------------------|
Gb|------U----------------------------------------------------|
Db|-3333-S--00000--88888-88888---333333-00000-888888-888888---|
Ab|-3333-E--00000--88888-88888---333333-00000-888888-888888---|
Db|-3333-D--00000--88888-88888---333333-00000-888888-888888---|
            .....  ..... .....   ...... ..... ...... ......

Repeat Chorus:

Before Bridge:Repeat Intro 1x

Bridge:
eb|---------------------------------------------5*------------5*----------------------|
Bb|-----5-------5--------5--------5---------5------5------5---------------------------|
Gb|---5---5---5---5----5---5----5---5---------5-------------5----5-------9------------|
Db|-------------------------------------------------------------------10---10--8--8---|
Ab|------------------3-------3-------------------------------------------------8--8---|
Db|-3-------3----------------------------0------------0-------------8----------8--8---|
                                                                               .  .

Repeat Chorus:

Outro:Paano sasabihin...
Play Chorus

Last Chords:Paano sasabihin...
Gtr.1 
eb|-------------------------|
Bb|-------------------------|
Gb|-----5~--7~--3~----------|
Db|-3~--5~--7~--3~-----3~---|
Ab|-3~--3~--5~--1~-3-2-3~---|
Db|-3~-----------------3~---|

eb|--------------------------------|
Bb|--------------------------------|
Gb|-----5~--7~---------------------|
Db|-3~--5~--7~----------------3~---|
Ab|-3~--3~--5~--4p3-3-3-4-4-3-3~---|
Db|-3~------------------------3~---|

End...

Paano Sasabihin Lyrics:

Verse 1:
Biglang sakit sa isipan biglang wala ka na
Ang panaginip ay,hindi pala tunay
At bakit ba itatangkilik hinahanap pala 
sana ay madama muli ang sandali

Chorus:
Paano sasabihin sa iyo ililihim ko pa ba
Paano kung mayroon ka ng iba malilihim ko pa ba

Verse 2:
Ilalayo ang isipan ayaw ng balikan, 
At bakit ba kay kulit hindi naman maiwan     
Biglang sakit sa isipan at parang kay tagal,
sana ay madama muli ang sandali

Repeat Chorus

Outro:
Paano sasabihin, Paano sasabihin x3
Tap to rate this tab
# A B C D E F G H I J K L M N O P Q R S T U V W X Y Z