Song name
# A B C D E F G H I J K L M N O P Q R S T U V W X Y Z

Jonas Brothers - Lovebug tab

Lovebug
Jonas Brothers
A Little Bit Longer
Tuning: Standart

INTRO
   B        A      E
e|------------------------------------|
B|------------------------------------|
G|----8---8---6---6----9---9---9---9--|
D|----9---9---7---7----9---9---9---9--| x2
A|-------------------7---7---7---7----|
E|--7---7---5---5---------------------|


VERSE 1
   B        A      E
e|------------------------------------|
B|------------------------------------|
G|----8---8---6---6----9---9---9---9--|
D|----9---9---7---7----9---9---9---9--| x3
A|-------------------7---7---7---7----|
E|--7---7---5---5---------------------|

   B        A      E
e|----------------------|
B|----------------------|
G|----8---8---6---6--9--|
D|----9---9---7---7--9--|
A|-------------------7--|
E|--7---7---5---5-------|


CHORUS
   E               E/D#
e|-----------------------------------|
B|-----------------------------------|
G|----9---9---9---9---9---9---9---9--|
D|----9---9---9---9---9---9---9---9--|
A|--7---7---7---7---6---6---6---6----|
E|-----------------------------------|
   A                  E
e|------------------------------------|
B|------------------------------------|
G|----6---6---6---6----9---9---9---9--|
D|----7---7---7---7----9---9---9---9--|
A|-------------------7---7---7---7----|
E|--5---5---5---5---------------------|
   E               E/D#
e|-----------------------------------|
B|-----------------------------------|
G|----9---9---9---9---9---9---9---9--|
D|----9---9---9---9---9---9---9---9--|
A|--7---7---7---7---6---6---6---6----|
E|-----------------------------------|
   A                  E
e|------------------------------------|
B|------------------------------------|
G|----6---6---6---6----9---9---9---9--|
D|----7---7---7---7----9---9---9---9--|
A|-------------------7---7---7---7----|
E|--5---5---5---5---------------------|


POST-CHORUS
   B        A      E
e|------------------------------------|
B|------------------------------------|
G|----8---8---6---6----9---9---9---9--|
D|----9---9---7---7----9---9---9---9--| x2
A|-------------------7---7---7---7----|
E|--7---7---5---5---------------------|


VERSE 2
   B        A      E
e|------------------------------------|
B|------------------------------------|
G|----8---8---6---6----9---9---9---9--|
D|----9---9---7---7----9---9---9---9--| x4
A|-------------------7---7---7---7----|
E|--7---7---5---5---------------------|


CHORUS x1


VERSE 3
e|---------------------------------------------------|
B|---------------------------------------------------|
G|---------------------------------------------------|
D|---------------------------------------------------|
A|--/6--4---/11---6--4---/11---6--4---/11--11h12p11--|
E|---------------------------------------------------|
                     distortion turned on
                              |
e|--------------------------------|
B|--------------------------------|
G|----------------------------9\--|
D|----------------------------9\--|
A|--6--4---11--7-7-7-7-7-7-7--7\--|
E|--------------------------------|


SOLO

Rhythm Guitar (not the exact amount of strums)
e|-----------------------|
B|-----------------------|
G|--9999-9999------------|
D|--9999-9999-7777-2222--|
A|--7777-6666-7777-2222--|
E|------------5555-0000--|

e|----------------------------------|
B|----------------------------------|
G|--9999-9999------999-999-999-999--|
D|--9999-9999-7777-999-999-999-999--|
A|--7777-6666-7777-777-000-777-000--|
E|------------5555------------------|

Guitar 1
e|---------------------------|
B|--------9~-9-10-12-10-9----|
G|--11b13-----------------9--|
D|---------------------------|
A|---------------------------|
E|---------------------------|

e|----------------------------------------------|
B|--------9~-9-10-12-10-9-----------------------|
G|--11b13-----------------11-11b13-11b13r-9-----|
D|------------------------------------------11--|
A|----------------------------------------------|
E|----------------------------------------------|

e|-----------------------------|
B|-----------------------------|
G|-------9-9==b-9=br--9--------|
D|--9-11----------------11-9~--|
A|-----------------------------|
E|-----------------------------|

e|---------------------------|
B|--------9~-9-10-12-10-9----|
G|--11b13-----------------9--|
D|---------------------------|
A|---------------------------|
E|---------------------------|

e|----------------------------------------------|
B|--------9~-9-10-12-10-9-----------------------|
G|--11b13-----------------11-11b13-11b13r-9-----|
D|------------------------------------------11--|
A|----------------------------------------------|
E|----------------------------------------------|

e|--------------------------------|
B|--------------------------------|
G|-------9-9==b-9=br--9-----------|
D|--9-11----------------11-9~~~~--|
A|--------------------------------|
E|--------------------------------|

Guitar 2
Enters on 02:43
e|------------------12-----------|
B|--10b12-12--12-14----14-12-10--|
G|-------------------------------|
D|-------------------------------|
A|-------------------------------|
E|-------------------------------|

e|------------------12-------------------------|
B|--10b12-12--12-14----14-12-10--10b-10br-8----|
G|------------------------------------------9--|
D|---------------------------------------------|
A|---------------------------------------------|
E|---------------------------------------------|

e|--------------------------------------|
B|--9-10-12-12==b14-12b14r-12-10-9~~~~--|
G|--------------------------------------|
D|--------------------------------------|
A|--------------------------------------|
E|--------------------------------------|


CHORUS
e|-----------------------|
B|-----------------------|
G|--9999-9999------------|
D|--9999-9999-7777-2222--| 
A|--7777-6666-7777-2222--|
E|------------5555-0000--|

e|--------------------------------------------|
B|--------------------------------------------|
G|--9999-9999---------------------------------|
D|--9999-9999-7777-2/4444-2/4444-7777-99999-2-| 
A|--7777-6666-7777-2/4444-2/4444-7777-99999-2-|
E|------------5555-0/2222-0/2222-5555-77777-0-|


======
LICKS
======

Lick at 01:03
e|------------------------9--|
B|-----------------7~-9-9-9--|
G|--8h9-9-9-8----------------|
D|------------11-9-----------|
A|---------------------------|
E|---------------------------|

e|--------------------------------------------------|
B|-------------------11s12-12-12-12-11s12-12-12-12\-|
G|--8h9-9-9-8---------------------------------------|
D|------------11-9----------------------------------|
A|--------------------------------------------------|
E|--------------------------------------------------|

Lick at 01:15 (not the exact amount of times played)
e|--------------555555555555555-44444444444444444444-|
B|-777777777777--------------------------------------|
G|---------------------------------------------------|
D|---------------------------------------------------|
A|---------------------------------------------------|
E|---------------------------------------------------|

e|--------------555555555555555-77777777777777777777-|
B|-777777777777--------------------------------------|
G|---------------------------------------------------|
D|---------------------------------------------------|
A|---------------------------------------------------|
E|---------------------------------------------------|

e|--14-14-14-14-14-17-17-17-17-17-16-16-16-16-16--|
B|------------------------------------------------|
G|------------------------------------------------|
D|------------------------------------------------|
A|------------------------------------------------|
E|------------------------------------------------|

e|--14-14-14-14-14-17-17-17-17-17-19-19-19-19-19--|
B|------------------------------------------------|
G|------------------------------------------------|
D|------------------------------------------------|
A|------------------------------------------------|
E|------------------------------------------------|

================
/ or s - slide
h - hammer on
p - pull off
b - bend
br or r - release after bend
= - hold note
~ - vibrato
================
Tap to rate this tab
# A B C D E F G H I J K L M N O P Q R S T U V W X Y Z