Song name
# A B C D E F G H I J K L M N O P Q R S T U V W X Y Z

Jonas Brothers - Send It On tab

This is the verse

E||--------------|--------------|
B||-----------0--|-----------0--|
G||--------2-----|--------2-----|
D||-----2--------|-----2--------|
A||--0-----------|--------------|
E||--------------|--2-----------|

E||-----------0--|-----------0--|
B||-----------5--|-----------0--|
G||--------6-----|--------9-----|
D||-----6--------|-----9--------|
A||--4-----------|--7-----------|
E||--------------|--------------|


These are the chords i use in the chorus

E||--0----0-----0----0----|-------||
B||--0----0----10----0----|-------||
G||--7----6----11----9----|-------||
D||--7----7----11----9----|-------||
A||--5----7-----9----7----|-------||
E||--------5--------------|-------|| 
Tap to rate this tab
 
# A B C D E F G H I J K L M N O P Q R S T U V W X Y Z