Guitaretab - guitar tabs
Song name
# A B C D E F G H I J K L M N O P Q R S T U V W X Y Z

Jonas Brothers - Give Love A Try tab

this is basically the whole song. just keep playing over and over. :P
be nice, first tab. :D

you kind find the song in the sneak peek of JONAS. it's all over youtube.
[ Tab from: http://www.guitaretab.com/j/jonas-brothers/183066.html ]
----------------------------------------------------------------------------------|
----------------------------------------------------------------------------------|
---------4--4/5-------------4--4/5-------------4--4/5--------------4--4/5---------|
----------------------------------------------------------------------------------|
-----3------------------3------------------2------------------2-------------------|
----------------------------------------------------------------------------------|

----------------------------------------------------|
----------------------------------------------------|
---------5--5/4----------------4--4/2---------------|
----------------------------------------------------|
----------------------------------------------------|
----3----------------------1------------------------|

---------------------------------------|
---------------------------------------|
-----------4--4/5-------------4--4/5---|
---------------------------------------|
-----3--------------------3------------|
---------------------------------------|
Related for Give Love A Try tab