Song name
# A B C D E F G H I J K L M N O P Q R S T U V W X Y Z

Jonas Brothers - Sos tab

intro
e-------------------------|
B-------------------------|
G----------------5-5-3b---|
D-----5----5--------------|
A------------2/3----------|
E--3----3-----------------|

verse
e---------------------|
B---------------------|
G----------5-5/6--3/4-|
D-----5---5-----------|   x3
A------------2/3------|
E--3----3-------------|

pre chorus
e|---------------------------------------|
B|---------------------------------------|
G|------------------7----7---------------|
D|-----2----2-------------------7--7-----|
A|--------------4/5---5------------------|
E|---0----0-----------------4/5---5-4/5--|

chorus
 STRUM UP AND DOWN
e|---------------------------------------------------|
B|---------------------------------------------------|
G|--9------------5-------------------------7---------|
D|--9------------5--------------5----------7---------|
A|--7------------3--------------5----------5---------|
E|------------------------------3--------------------|x2

e|---------------------------------------------------------------|
B|---------------------------------------------------------------|
G|---------------5-------------------------7------5--------------|
D|--7------------5--------------5----------7---7--5-strum--once--|
A|--7------------3--------------5----------5---7--3--------------|
E|--5---------------------------3--------------5-----------------|
  half

intro
e---------------------|
B---------------------|
G------------5-5-3b---|
D-----5----5----------|
A------------2/3------|
E--3----3-------------|

verse
e--------------------------|
B--------------------------|
G---------------5-5/6--3/4-|
D-----5---5----------------|   x3
A------------2/3-----------|
E--3----3------------------|

pre chorus
e|---------------------------------------|
B|---------------------------------------|
G|------------------7----7---------------|
D|-----2----2-------------------7--7-----|
A|--------------4/5---5------------------|
E|---0----0-----------------4/5---5-4/5--|

chorus
e|---------------------------------------------------|
B|---------------------------------------------------|
G|--9------------5-------------------------7---------|
D|--9------------5--------------5----------7---------|
A|--7------------3--------------5----------5---------|
E|------------------------------3--------------------|x2

e|-----------------------------------------------------|
B|-----------------------------------------------------|
G|---------------5-------------------------7-----5-----|
D|--7------------5--------------5----------7--7--5-----|
A|--7------------3--------------5----------5--7--3-----|
E|--5---------------------------3-------------5--------|
  half

bridge


 e|------------------------|
 B|------------------------|
 G|--9---------7-----------|
 D|--9---------7---------7-|
 A|--7---------5---------7-|
 E|----------------------5-|
  Next time I see you, I'm giving you a high five...

  The added part to the chorus:
e|-----------------------------|
B|-----------------------------|
G|---5---------7---------------|
D|---5---------7-strum--once---|
A|---3---------5---------------|
E|-----------------------------|

('Cause hugs are over rated, just FYI)

e|----------------------------------------------------|
B|----------------------------------------------------|
G|--9------------5------------------------------------|
D|--9------------5--------------5---------------------|
A|--7------------3--------------5---------------------| strum once for each
E|------------------------------3---------------------|
truee I gave my all for you, now my heart's in two

chorus

e|---------------------------------------------------|
B|---------------------------------------------------|
G|--9------------5-------------------------7---------|
D|--9------------5--------------5----------7---------|
A|--7------------3--------------5----------5---------|
E|------------------------------3--------------------|x2

e|------------------------------------------------|
B|------------------------------------------------|
G|---------------5-------------------------7------|
D|--7------------5--------------5----------7------|
A|--7------------3--------------5----------5------|
E|--5---------------------------3-----------------|
  half

outro
e|-------------------------------|
B|-------------------------------|
G|---------------5---------------|
D|--7------------5-strum-once----|
A|--7------------3---------------|
E|--5----------------------------|
Tap to rate this tab
 
# A B C D E F G H I J K L M N O P Q R S T U V W X Y Z