Song name
# A B C D E F G H I J K L M N O P Q R S T U V W X Y Z

Jonas Brothers - Dont Take My Heart And Put It On A Shelf tab

			     SONG NAME - Band Name
-------------------------------------------------------------------------------
Tabbed by:NancyPurvis
Email:Nancyr_purvis@yahoo.com

Tuning:Standard


I dont think its 100% correct, if its not, then its really close

oh! also, when you see SL...that means slide. cause i didnt know what to put for 
yea... if there is any confusion, email me

intro
e|------------------------------------------------------------------------------|
B|------------------------------------------------------------------------------|
G|-7----------------------7--------7--------------------------------------------|
D|-7----7----9---10---5---7---7----7--------------------------------------------|
A|-5----7----9---10---5---5---7----5--------------------------------------------|
E|------5----7---8----3-------5-------------------------------------------------|

1st verse
shes such a ..........give it a chance...cause youll never..
e|---------------------------------------------------------------------------------------|
B|---------------------------------------------------------------------------------------|
G|-7---------------7---------------------------------------------------------------------|
D|-7---4---5---7---7------4---5---7-------4---5---4---5----------------------------------|
A|-5---4---5---7---5------4---5---7-------4---5---4---5----------------------------------|
E|-----2---3---5----------2---3---5-------2---3---2---3----------------------------------|
chorus

e|------------------------------------------------------------------|
B|------------------------------------------------------------------|
G|-7--------------------------7------7--------------------7------7--|
D|-7---7-----9---10---5---7---7--7---7---9---10---5---7---7--7---7--|
A|-5---7-----9---10---5---7---5--7---5---9---10---5---7---5--7---5--|
E|-----5-----7---8----3---5------5-------7---8----3---5------5------|

  verses are the same
  chorus is the same

then this thing...(i really dont know what its called)

im tired of...
e|-------------------------------------------------------|
B|-------------------------------------------------------|
G|----------6----7-----------------7----9----------------|
D|-10--5----6-SL-7-------10---5-----7-SL-9--------7---5--|
A|-10--5----4----5--X3---10---5-----5----7---X6---7---5--|
E|-8---3-----------------8----3-------------------5---3--|

Chorus X2
Tap to rate this tab
# A B C D E F G H I J K L M N O P Q R S T U V W X Y Z