Song name
# A B C D E F G H I J K L M N O P Q R S T U V W X Y Z

Jonas Brothers - Hello Beautiful tab

Tabbed BY Kendra
kansassgirl@yahoo.com

I'm positive this is 100% correct, listen to the song to get the perfect strum pattern
the chords are all right. Nick's part is Guitar 1, Kevin's part is Guitar 2, he uses a
on fret 1, but it doesn't sound much different without a capo. - If you find something 
with this tab please email me. Enjoy.

v - vibrato
* - NOTE

Verse - Guitar 1
E|------------------------|
B|------------------------|
G|99999999999999-9-9-6----|
D|99999999999999-9-9-6-7--|
A|77777777777777-7-6-4-7--|
E|---------------------5--|
  DDDDUDUDUDUDUD *continue this strum pattern throughout the song (when you restart the
chords it may be easier to start the strum UDD)

Verse 1 - Guitar 2                    Verse 2 - Guitar 2
E|----------------------------------| E|------------------------------------|
B|---4-5-4-------4-5-4--------------| B|---4-5-4---------4-5-4--------------|
G|-4-----------4-------4-4/6-----2--| G|-4-------4-----4-------4-4/6-----2--|
D|----------------------------------| D|------------------------------------|
A|----------------------------------| A|------------------------------------|
E|----------------------------------| E|------------------------------------|
         v                  v                    v                 v

Chorus - Guitar 1
E|-------------------------------------------------------|
B|-------------------------------------------------------|
G|-9-----------9------------------------6-6-4-4-4-9------|
D|-9-----------9-----------7-----x2-----6-6-4-4-4-9-7-9--|
A|-7-----------6-----------7------------4-3-2-1-2-7-7-9--|
E|-------------------------5------------------------5-7--|
  But tonight...im gonna   fly...

Chorus - Guitar 2
E|------------------------------------------------------------------------|
B|--5-5-5-5-5-5-5-5-5-5-5-5-5-5-5-5------4-4-4-4-4-4-4-4-4-4-4-4-4-4-4-4--|
G|-4-4-4-4-4-4-4-4-4-4-4-4-4-4-4-4------4-4-4-4-4-4-4-4-4-4-4-4-4-4-4-4---|
D|------------------------------------------------------------------------|
A|------------------------------------------------------------------------|
E|------------------------------------------------------------------------|
Tap to rate this tab
 
# A B C D E F G H I J K L M N O P Q R S T U V W X Y Z