Song name
# A B C D E F G H I J K L M N O P Q R S T U V W X Y Z

Jonathan Clay - A Little Time chords

-------------------------------------------------------------------------------
			     A Little Time - Jonathan Clay
-------------------------------------------------------------------------------
Tabbed by: lmcoon

Tuning: Standard, Capo 1

Capo 1 if you're playing with the recording and usually Capo 2 if you're
playing with any live footage.

Sorry to those of you who wanted the "funkiness" tabbed out.  If I get some
comments I can make a youtube video of how I think he does it/what sounds good.

Improvements are appreciated.


Intro/Verse:
e|-----3-----------------------------------------------------------|
B|-----3--------7--------5-----------------3-----------------------|
G|-----0--------0--------5--------5--------2-----------------------|
D|-----0--------7--------5--------5--------0-----------------------|
A|-----2--------5--------x--------3--------x-----------------------|
E|-----3-----------------5-----------------2-----------------------|


Chorus:
e|-----------------------------------------------------------------|
B|----5--------3--------3-------------------------5--7--3--5--7--10|
G|----5--------2--------0-------------last time---0--0--0--0--0--0-|
D|----5--------0--------0--------------before-----x--x--x--x--x--x-|
A|----x--------x--------x-h2--2h3------bridge-----5--7--3--5--7--10|
E|----5--------2--------3------------------------------------------|


Bridge:
e|-----3--------3-----------------3--------------------------------|
B|-----3--------3--------7h8------3--------3---5---7---10----------|
G|-----0--------0--------7--------0--------0---0---0---0-----------|
D|-----0--------x--------7h9------x--(x2)--x---x---x---x-----------|
A|-----x--------3--------7--------3--------3---5---7---10----------|
E|-----3--------x--------x--------x--------------------------------|


Tap to rate this tab
# A B C D E F G H I J K L M N O P Q R S T U V W X Y Z