Song name
# A B C D E F G H I J K L M N O P Q R S T U V W X Y Z

Jose Gonzalez - Love Will Tear Us Apart tab

-------------------------------------------------------------------------------
			     Love Will Tear Us Apart - Jose Gonzalez
-------------------------------------------------------------------------------
Tabbed by: Tom Walter
Email: josetabs.20.epm [at] spamgourmet.com

Tuning: D A D F# B E  (Capo 2)

Jose's cover of the Joy Division song. Just the chords. Forgive my slack
tabbing but it's all strummed and it's pretty easy to figure out the tab while
listening along. I've put in bar lines to highlight the places where there are
transitional notes at the end of a bar. You don't necessarily play every single
note of the chord each strum, but if you've got your fingers where indicated,
it'll sound about right.

Intro
      x7
E |--0--|--0-------|
B |--0--|--0-------|
F#|-10--|-10-------|
D |--9--|--9-------|
A |--0--|--0----0--|
D |--x--|--x----0--|

E |--0--|--0-------|--0--|--0--|
B |--0--|--0-------|--0--|--0--|
F#|--0--|--0-------|--0--|--7--|
D |--x--|--x----0--|--x--|--7--|
A |--7--|--9----0--|--9--|--x--|
D |--9--|--0-------|--9--|--7--|

Verse
E |--x--|--x--|--x--|--x--|--x--|--x--|--x--|--x--|
B |-(0)-|-(0)-|-(0)-|-(0)-|-(0)-|-(0)-|-(0)-|-(0)-|
F#|--x--|--x--|--x--|--x--|--x--|--x--|--x--|--x--|
D |--9--|--7--|--4--|--7--|--9--|--7--|--4--|--2--|
A |--7--|--5--|--2--|--4--|--7--|--5--|--2--|--0--|
D |-----|-----|-----|-----|-----|-----|-----|-----|

Chorus
E |--0--|--0----0--0----0-----|--0-------|--0--|
B |--0--|--0----0--0----0-(0)-|--0---(0)-|--0--|
F#|--0--|--0----0--0----0--0--|--0----0--|--7--|
D |--x--|--x----x--x----x--0--|--x----0--|--7--|
A |--7--|--9---10--9----7--X--|--9----x--|--x--|
D |--9--|--0----0--0----0-----|--9-------|--7--|

Outro
      x5
E |--0--|-----||
B |--0--|-----||
F#|--7--|--0--||
D |--7--|--0--||
A |--x--|--0--||
D |--7--|--0--||


| () Ghost note
| x  Mute note
===============================================================================
Tap to rate this tab
 
# A B C D E F G H I J K L M N O P Q R S T U V W X Y Z