Song name
# A B C D E F G H I J K L M N O P Q R S T U V W X Y Z

Josh Kelley - Tidal Wave tab

This is a great song off of Josh Kelley's latest album "Special Company". I decided to 
it out since there wasn't one. It's 100% correct. Standard tuning.


Intro

E----------- --0--- --9--- --X--- --7---|
B----------- --0--- --7--- --9--- --7---|
G----------- --9--- --6--- --9--- --8---|
D----------- --9--- --8--- --9--- --9---|
A------2---- --7--- --6--- --X--- --9---|
E--2/4---4-- --0--- --X--- --9--- --7---|


Verse

E---0--- ---9--- ---X--- ---7---|
B---0--- ---7--- ---9--- ---7---|
G---9--- ---6--- ---9--- ---8---|   x4
D---9--- ---8--- ---9--- ---9---|
A---7--- ---6--- ---X--- ---9---|
E---0--- ---X--- ---9--- ---7---|


Pre-chorus

E--2-- --4-- --0-- --7--         E--2-- --4-- --0--
B--2-- --4-- --0-- --7--         B--2-- --4-- --0--
G--3-- --4-- --9-- --8--   x2    G--3-- --4-- --9--
D--4-- --6-- --9-- --9--         D--4-- --6-- --9--
A--4-- --6-- --7-- --9--         A--4-- --6-- --7--
E--2-- --4-- --0-- --7--         E--2-- --4-- --0--


First Chorus

E---X--- ---4--- ---0--- ---7---|
B---4--- ---4--- ---0--- ---7---|
G---4--- ---4--- ---9--- ---8---|
D---4--- ---6--- ---9--- ---9---|
A---2--- ---6--- ---7--- ---9---|
E---X--- ---4--- ---0--- ---7---|

Verse

Pre-chorus

First Chorus


Bridge

E---0--- ---7---       E---9----|
B---0--- ---7---       B---9----|
G---1--- ---8--- x3    G---10---|
D---2--- ---9---       D---11---|
A---2--- ---9---       A---11---|
E---0--- ---7---       E---9----|


Verse x2

Pre-chorus

First Chorus (only once) then...


Second Chorus

E---2--- ---4--- ---0--- ---X---|
B---2--- ---4--- ---0--- ---4---|
G---3--- ---4--- ---1--- ---4---|   x2
D---4--- ---6--- ---2--- ---4---|
A---4--- ---6--- ---2--- ---2---|
E---2--- ---4--- ---0--- ---X---|
Tap to rate this tab
# A B C D E F G H I J K L M N O P Q R S T U V W X Y Z