Guitaretab - guitar tabs
Song name
# A B C D E F G H I J K L M N O P Q R S T U V W X Y Z

Joshua Radin - Girlfriend In A Coma tab

JOSHUA RADIN - "Girlfriend in a coma"
Tabbed by Luke Armstrong

This is not exact for the pattern all the way through which varies a tiny bit but is 
easy to pick up if u listen. Good luck with this! I may be wrong as it's my first tab!

Capo on fret 6

MAIN PATTERN:
Girlfriend in a coma, I know, I know,
Its serious.
Girlfriend in a coma, I know, I know,
Its really serious.
There were times when I could have murdered her,
But you know that would hate anything to happen to her,
No I donít want to see her.

-----------3----------------3-----------------3--------------3------------|
-------------3----------------3------------------3-------------3----------|
--------0------0--------0-------0----------0-------------0-------0--------|
--------------------------------------------------------------------------|
-(2)-3-----------(3)-2--------------(2)-0----------(0)-2------------------|
--------------------------------------------------------------------------|
[ Tab from: http://www.guitaretab.com/j/joshua-radin/140056.html ]
OTHER PATTERN:
Do you really think that she'll pull through?
Do you really think that she'll pull through?
Do you?

---------0-----------------0-----------------0-----------------0-------------|
------------3-----------------3-----------------3------------------3---------|
------0---------0-----0----------0-------0--------0--------0---------0-------|
-2-----------------2-------------------3----------------3--------------------|
-----------------------------------------------------------------------------|
-----------------------------------------------------------------------------|

MAIN PATTERN AGAIN

Girlfriend in a coma,
I know, I know,
Its serious.
Bye bye, bye bye, bye bye, baby goodbye.
there were times when I could have strangled her
But you know that would hate anything to happen to her,
Would you please let me see her?

OTHER PATTERN
Do you really think that she'll pull through?
Do you really think that she'll pull through?
Do you?

MAIN PATTERN
Girlfriend in a coma I know, I know,
Its serious.
Bye bye, bye bye, baby goodbye
Bye bye, bye bye, baby goodbye.
Related for Girlfriend In A Coma tab