Song name
# A B C D E F G H I J K L M N O P Q R S T U V W X Y Z

Journey - Dont Stop Believing tab

yeah this is the piano for guitar and bass... just because i decided to learn it on both...

e-mail) guitar_freak_1985@yahoo.com

Bass/Left Hand...
(octaves)
G|-----------4-4-4-6-8-8-6-6-6-8-9-2-2-2-2-8-9-------------------------------|
D|-2-2-2-4-6-----------------------------------------------------------------|
A|-----------2-2-2-4-6-6-4-4-4-6-7-0-0-0-0-6-7-------------------------------|
E|-0-0-0-2-4-----------------------------------------------------------------|

G|-----------4-4-4-6-8-8---------2-2-2-2-------------------------------------|
D|-2-2-2-4-6-------------4-4-4-4---------------------------------------------|
A|-----------2-2-2-4-6-6---------0-0-0-0-------------------------------------|
E|-0-0-0-2-4-------------2-2-2-2---------------------------------------------|

Guitar/Right Hand...

e|---------------------------------------------------------------------------|
B|-6-6-6-6-8-8-8-8-6-6-6-6-3-3-3-3-------------------------------------------|
G|--5-5-5-5-5-5-5-5-5-5-5-5-3-3-3-3------------------------------------------|
D|---------------------------------------------------------------------------|
A|---------------------------------------------------------------------------|
E|---------------------------------------------------------------------------|

e|-6-6-6-6-8-8-8-8-5-5-5-5-6-6-6-6-------------------------------------------|
B|--5-5-5-5-5-5-5-5-5-5-5-5-5-5-5-5------------------------------------------|
G|---------------------------------------------------------------------------|
D|---------------------------------------------------------------------------|
A|---------------------------------------------------------------------------|
E|---------------------------------------------------------------------------|
Tap to rate this tab
# A B C D E F G H I J K L M N O P Q R S T U V W X Y Z