Song name
# A B C D E F G H I J K L M N O P Q R S T U V W X Y Z

Journey - Dont Stop Believing tab

During the solo guitar #1 needs to keep playing because it makes a good background sound

Guitar #1

e|---x-x-------------------------------|
b|---x-x-------------------------------|
g|---1-1-------------------------------|
d|---2-2----------------------------2--|
a|---2-2--------2--2-2-4-6--4-4-4-6----|
e|--------0-2-4-----------------------5|



Solo

e|--b16--16--14-b16--16--b16--14---------------------|
b|-------------------------------17-16-17-14---------|
g|-------------------------------------------16-14---|
d|---------------------------------------------------|
a|---------------------------------------------------|
e|---------------------------------------------------|



e|--b16--16--14--b16--16-14----19-21-b21---|
b|--------------------------17-------------|
g|-----------------------------------------|
d|-----------------------------------------|
a|-----------------------------------------|
e|-----------------------------------------|
Tap to rate this tab
# A B C D E F G H I J K L M N O P Q R S T U V W X Y Z