Guitaretab - guitar tabs
Song name
# A B C D E F G H I J K L M N O P Q R S T U V W X Y Z

Joy Division - Warsaw tab

Joy Division - Warsaw
Tabbed by Eren OGRUL


Listen for the correct timing!

00:00 - 00:33
e|------------------------|
B|------------------------|
G|------------------------|
D|---------2-----2-----2--|
A|-5-4-----2-----2-----2--|
E|-3-2-0-0-0-0-0-0-0-0-0--|
       * *   * *   * *

00:33 - 00:44
e|-----------------------      e|------|
B|-----------------------      B|------|
G|-9-9-12-12-11-11-10-10- end  G|-9-9--|
D|-9-9-12-12-11-11-10-10-      D|-9-9--|
A|-7-7-10-10--9--9--8--8-      A|-7-7--|
E|-----------------------      E|------|

00:45 - 01:06
e|-----------------------------------------------|
B|-----------------------------------------------|
G|-----------------------12-11-------------------|
D|---------2-----2-----2--x--x-----2-----2-----2-|
A|-5-4-----2-----2-----2-10--9-----2-----2-----2-|
E|-3-2-0-0-0-0-0-0-0-0-0-------0-0-0-0-0-0-0-0-0-|
       * *   * *   * *         * *   * *   * *

01:07 - 01:20
e|-----------------------      e|------|
B|-----------------------      B|------|
G|-9-9-12-12-11-11-10-10- end  G|-9-9--| x2
D|-9-9-12-12-11-11-10-10-      D|-9-9--|
A|-7-7-10-10--9--9--8--8-      A|-7-7--|
E|-----------------------      E|------|
[ Tab from: http://www.guitaretab.com/j/joy-division/52326.html ]
01:20 - 01:33
e|---------------------------------------|
B|---------------------------------------|
G|-12-12-12-9-9-9-11-12-12-12-12-9-9-9-9-|
D|--x--x--x-x-x-x--x--x--x--x--x-x-x-x-x-|
A|-10-10-10-7-7-7--9-10-10-10-10-7-7-7-7-|
E|---------------------------------------|

01:33 - 01:37
e|------|
B|------|
G|-9-9--|
D|-9-9--|
A|-7-7--|
E|------|

01:38 - 02:00
e|-----------------------------------------------|
B|-----------------------------------------------|
G|-----------------------12-11-------------------|
D|---------2-----2-----2--x--x-----2-----2-----2-|
A|-5-4-----2-----2-----2-10--9-----2-----2-----2-|
E|-3-2-0-0-0-0-0-0-0-0-0-------0-0-0-0-0-0-0-0-0-|
       * *   * *   * *         * *   * *   * *

02:01 - 02:11
e|-----------------------      e|------|
B|-----------------------      B|------|
G|-9-9-12-12-11-11-10-10- end  G|-9-9--|
D|-9-9-12-12-11-11-10-10-      D|-9-9--|
A|-7-7-10-10--9--9--8--8-      A|-7-7--|
E|-----------------------      E|------|

02:13 - 02:26
e|-----------------------------------------------------|
B|-----------------------------------------------------|
G|----9-----9-----9-----9-----9-----9-----9--12--11--9-|
D|----9-----9-----9-----9-----9-----9-----9--12--11--9-|
A|----7-----7-----7-----7-----7-----7-----7--10---9--7-|
E|-0-0--0-0---0-0---0-0---0-0---0-0---0-0--------------|
   * *  * *   * *   * *   * *   * *   * *
Related for Warsaw tab
Advertisement will be closed in 10 seconds