Guitaretab - guitar tabs
Song name
# A B C D E F G H I J K L M N O P Q R S T U V W X Y Z

Joy Division - Ice Age tab

-------------------------------------------------------------------------------
			     Ice Age - Joy Division
-------------------------------------------------------------------------------
Tabbed by: Gallagher2006

These are the chords/riffs used throughout the song

Verse

e|----------------------------------|
B|----------------------------------|
G|----------------------------------|
D|-----10----------10--11-----------|
A|-----8---8-------8----9-----------|
E|---------6------------------------|

Chorus
[ Tab from: http://www.guitaretab.com/j/joy-division/154792.html ]
e|--------------------------------------------------------|
B|--------------------------------------------------------|
G|--------------------------------------------------------|
D|--------------------------------------------------------|
A|---8-8-8-6-4---3-4-6---8-8-8-6-4---3-4-6----------------|
E|---6-6-6-4-2---1-2-4---6-6-6-4-2---1-2-4----------------|

The solo, as far as I can make out is just string scratching around the 
higher octave frets. So just improve it =]

Any improvements, or a better way of explaining the solo, put in 
the comments section and Iíll get back to you =)
Related for Ice Age tab