Guitaretab - guitar tabs
Song name
# A B C D E F G H I J K L M N O P Q R S T U V W X Y Z

Judas Priest - Angel tab

I love this song, its probably my favorite Judas Priest Song, as soon as i heard it i to 
it immediatly, the version 2 tab on this site was quite accurate exept for the they 
missing a few things, but i give props to the maker for the rest of the song.

Tuning - Standard

Intro
Guitar 1 - Electric Acoustic
|-------------------------------------|
|-------2h3-3--2-3--------------------|
|-------------------------0-------2---|
|---4-------------------0---0---2---2-|
|-2---------------------------0-------|
|--------------------3----------------|

|-------------------------------------|
|-------2h3-3--5-3--------------------|
|-------------------------0-------2---|
|---4-------------------0---0---2---2-|
|-2---------------------------0-------|
|--------------------3----------------|

Guitar 2 - Acoustic
|-9h10---9h10-12-10-9-7-5---------7-7|
|------12-------------------5-5/7----|
|------------------------------------|
|------------------------------------|
|------------------------------------|
|------------------------------------|

|------------------------------------|
|-5-7-8-7-5--------------------------|
|-----------7-64---4-4--------------|
|-----------------7------------------|
|------------------------------------|
|------------------------------------|

Pre Chorus (I Left The Same Cause It Looked And Sounded Good)

And I know we'll find a better place and peace of mind
|-----3-----------2----------------------3--------2-----|
|-----3-----------3----------------------3--------3-----|
|-----4-----------4----------------------4--------4-----|
|-----5-----------4----------------------5--------4-----|
|-----5-----------2----------------------5--------2-----|
|-----3----------------------------------3--------------|

Just tell me that it's all you want for you and me
|-----------------3-----------------------------2-------|
|-----------------3-------------0---------------2-------|
|-----------------4-------------0---------------3-------|
|-----------------5-------------2---------------4-------|
|-----------------5-------------2---------------4-------|
|-----------------3-------------0---------------2-------|

Angel won't you set me free.

Go back to the intro/verse riffs. (Both)

Pre Chorus (Both Guitars Playing)
|-----3-----------2----------------------3--------2-----|
|-----3-----------3----------------------3--------3-----|
|-----4-----------4----------------------4--------4-----|
|-----5-----------4----------------------5--------4-----|
|-----5-----------2----------------------5--------2-----|
|-----3----------------------------------3--------------|

|-----------------3-----------------------------2-------|
|-----------------3-------------0---------------2-------|
|-----------------4-------------0---------------3-------|
|-----------------5-------------2---------------4-------|
|-----------------5-------------2---------------4-------|
|-----------------3-------------0---------------2-------|

Solo (Good Job On The Solo Whomever Did It)
Guitar 1 - Electric Acoustic/w Distortion/Wah
|-9h10----9h10-12-10-9-7-5-------7-7-|
|------12------------------5-5/7-----|
|------------------------------------|
|------------------------------------|
|------------------------------------|
|------------------------------------|

|-9h10-12-10-17--17-15-14--14-15-14--------------------|
|----------------------------------14-15--7/17-17b-----|
|------------------------------------------------------|
|------------------------------------------------------|
|------------------------------------------------------|
|------------------------------------------------------|

|----------------------------------------------------|
|-17-14h15p14-12-------------------------------------|
|-------------------------------9-12-11--12-11-9---9-|
|----------------3/9-9-11-12-12------------------9---|
|----------------------------------------------------|
|----------------------------------------------------|
[ Tab from: http://www.guitaretab.com/j/judas-priest/135487.html ]
Bridge - Guitar 2
Oh angel we will meet once more I'll pray
|-3---------------2----------------------------------|
|-3---------------2----------------------------------|
|-0---------------3----------------------------------|
|-0---------------4----------------------------------|
|-2---------------4----------------------------------|
|-3---------------2----------------------------------|


   When all my sins are washed away
|-2------------3-------------------------------------|
|-3------------3-------------------------------------|
|-4------------0-------------------------------------|
|-4------------0-------------------------------------|
|-2------------2-------------------------------------|
|--------------3-------------------------------------|

  Hold me inside your wings and stay
|-0----------2------------------2---------3----------|
|-1----------2------------------3----0----3----------|
|-0----------3------------------4----2----4----------|
|-2----------4------------------4----2----5----------|
|-3----------4------------------2----0----5----------|
|------------2----------------------------3----------|

Guitar 1 - Electric Acoustic/W/Palm Muting
Oh, Angel take me far away
|----------------------------------------------------|
|----------------------------------------------------|
|----------------------------------------------------|
|------------------------9---------------------------|
|------------------------9---------------------------|
|------------------------7---------------------------|

              Put sad wings around me now
|----------------------------------------------------|
|----------------------------------------------------|
|----------------------------------------------------|
|-9-----5-----7-------------9------------------------|
|-9-----5-----7-------------9------------------------|
|-7-----3-----5-------------7------------------------|

  Angel take me far away
|----------------------------------------------------|
|----------------------------------------------------|
|----------------------------------------------------|
|-5-------------7--------9---------------------------|
|-5-------------7--------9---------------------------|
|-3-------------5--------7---------------------------|

           Put sad wings around me now
|----------------------------------------------------|
|----------------------------------------------------|
|----------------------------------------------------|
|----------------------------------------------------|
|----------------------------------------------------|
|----------------------------------------------------|

        So that we can rise again
|----------------------------------------------------|
|----------------------------------------------------|
|----------------------------------------------------|
|-9-------------5-------7------9---------------------|
|-9-------------5-------7------9---------------------|
|-7-------------3-------5------7---------------------|

Guitar 2
|----------------------------------------------------|
|----------------------------------------------------|
|----------------------------------------------------|
|----------------------------------------------------|
|-------------7--------------------------------------|
|--7--9----10-----9---10-7---------------------------|

|----------------------------------------------------|
|--12---14b14b---16b16b----12------------------------|
|----------------------------------------------------|
|----------------------------------------------------|
|----------------------------------------------------|
|----------------------------------------------------|

Outro

|-------------------------------------|
|-------2h3-3--2-3--------------------|
|-------------------------0-------2---|
|---4-------------------0---0---2---2-|
|-2---------------------------0-------|
|--------------------3----------------|

|-------------------------------------|
|-------2h3-3--5-3--------------------|
|-------------------------0-------2---|
|---4-------------------0---0---2---2-|
|-2---------------------------0-------|
|--------------------3----------------|

h-hammeron
b-bend
Related for Angel tab