Song name
# A B C D E F G H I J K L M N O P Q R S T U V W X Y Z

Junichi Masuda - Pokemon Poke Center tab

-----------------------------------------------------------------
Pokemon PokeCenter Theme - (Tabbed By Ear from Memory)
-----------------------------------------------------------------
Tabbed by: Tai Geng
Email:geng.tai@gmail.com
Tuning: Standard

E|--------3---1---0-----|---------|-------0-------0---------------|
B|--1---1-----------3-0-|---------|-0---0---3-0-1-------0-----0---|
G|----0---------------0-|---------|---0-----0-------0-2---2-0-----|
D|----2-2-------2---0---|-0-------|-------------------------------|
A|--3-------3-----------|---3-2-0-|-2-----3-----3-----------------|
E|----------------------|---------|-------------------------------|

E|--------3---1---0-----|---------|-------0-----------------------|
B|--1---1-----------3-0-|---------|-0---0---3-0-1---------0-1-3---|
G|----0---------------0-|---------|---0-----0-----0-2-0-2---------|
D|----2-2-------2---0---|-0-------|-------------------------------|
A|--3-------3-----------|---3-2-0-|-2-----3-----3-----------------|
E|----------------------|---------|-------------------------------|

E|--0-------3-------1-3-1-0---|---------|
B|----1---1---1---1---------3-|---------|
G|------0-------0-------0---0-|---------|
D|----------2-------0---------|-0-------|
A|--3-------------------------|---3-2-0-|
E|----------------------------|---------|  Continue Immediately Below

E|------------------0-1-0-----|-------|
B|--0-------3---------0---3-1-|-------|
G|--0-0---0-0-0---0-0---0-----|-0---0-|
D|------0-------0---2-----0---|---2---|
A|--------------------------3-|-------|
E|----------------------------|-------|

E|--0-------3-------1-0-1-3-5-|-------|
B|----1---1---1---1-----0---3-|-------|
G|------0-------0-----0-------|-0-----|
D|----------2-------0---------|---3-2-|
A|--3-------------------------|-------|
E|----------------------------|-------|  Continue Immediately Below

E|--3---1-0-1-|-------|-0-1-0----|---------|
B|------------|-------|-------3-1|---------|
G|--0-0-----0-|-------|---0-0-0--|---------|
D|--0---------|-3-2-0-|-2---2----|---------|
A|------------|-------|---------3|-------3-|
E|------------|-------|----------|-3-0-3---|
Tap to rate this tab
# A B C D E F G H I J K L M N O P Q R S T U V W X Y Z