Song name
# A B C D E F G H I J K L M N O P Q R S T U V W X Y Z

Justin Bieber - Be Alright tab

This is the simplest way I found to play this song:)

Intro/Verse/Chorus

e|------------------------------------------------|
b|------------------------------------------------|
g|-------------7--7-------9----9--------5---5-----|
d|---5--5------7--7-------9----9--------5---5-----|
a|---5--5---5-----5----7-------7-----3------3-----|
E|-3----3-----------------------------------------|



Bridge (2x)

e|------------------------------------------------|
b|------------------------------------------------|
g|-------------5--5-------------------------------|
d|---7--7------5--5-------5----5---------5---5----|
a|---7--7---3-----3-------5----5---------5---5----|
E|-5----5--------------3-------3-----3-------3----|
Tap to rate this tab
# A B C D E F G H I J K L M N O P Q R S T U V W X Y Z