Guitaretab - guitar tabs
Song name
# A B C D E F G H I J K L M N O P Q R S T U V W X Y Z

Kamelot - Ghost Opera tab

Ghost Opera
Kamelot
Track number 3 from Ghost Opera (2007)
Tabbed By: Mariano Arnaiz
Anything to : marianoarnaiz@hotmail.com
Tunning: 1/2 step down & Drop Db (DbAbDbGbBbeb)

THIS IS AN UNPGRADED VERTION OF THE OTHER TAB..... NOTHING ELSTE TO SAY THIS SONG IS 
GREAT
Orchestra Intro (00:00)
eb||----------------|----------------|----------------|-------||
Bb||----3-3----3-3--|----3-3----3-3--|------3------3--|--3-3--||
Gb||----2-3----2-3--|----0-2----0-2--|------0------0--|-------||
Db||--0-----0-------|--0------0------|--0-3----0-3----|--3-2--||
Ab||----------------|----------------|----------------|-------||
Db||----------------|----------------|----------------|-------||

Guitar Intro (00:10)
eb||----------------|----------------|----------------|---------||
Bb||----------------|----------------|----------------|---------||
Gb||----------------|----------------|----------------|---------|| x2
Db||--0-7-8--0-7-8--|--0-5-7--0-5-7--|--0-3-5--0-3-5--|--3-2----||
Ab||--0-7-8--0-7-8--|--0-5-7--0-5-7--|--0-3-5--0-3-5--|--3-2----||
Db||--0-7-8--0-7-8--|--0-5-7--0-5-7--|--0-3-5--0-3-5--|--3-2-0--||

Keyboard & Guitar Duet (00:19)
                                          *THIS TIME PLAYED BY VIOLIN*
eb||--------------------------------|-----------------------------------||
Bb||--./3--/10\9-/10\8-/10\6-(6\3)--|--./3--/10\9-/10\8-/10\6-(6\3)-----||
Gb||--------------------------------|-----------------------------------||
Db||--------------------------------|-----------------------------------||
Ab||--------------------------------|-----------------------------------||
Db||--------------------------------|-----------------------------------||
                                                      *FAST GUITAR PART*
eb||--------------------------------|---------------------------------------------------------------------------------||
Bb||--./6--/10\9-/10\8-/10\6-(6\3)--|--./6--/10\9-/10\--13-11-10---11-10-------10-------------------------------------||
Gb||--------------------------------|---------------------------12-------12-10---12-10-9-12-10-9-7-10-9-7---9-7-------||
Db||--------------------------------|--------------------------------------------------------------------10-----10-8--||
Ab||--------------------------------|---------------------------------------------------------------------------------||
Db||--------------------------------|---------------------------------------------------------------------------------||

Verse 1 (00:37)
eb||----------------------------|----------------------|----------------------|----------------------||
Bb||----------------------------|----------------------|----------------------|----------------------||
Gb||----------------------------|--3---------3---------|----------------------|--3---------3---------||
Db||--0-------------0-----------|--3----3-2--3----3-2--|--0---------0---------|--3----3-2--3----3-2--||
Ab||--0-----0--1----0-----0--1--|--111--1-1--111--1-1--|--0---0-1---0----0-1--|--111--1-1--111--1-1--||
Db||--000---0--0----000---0--0--|----------------------|--000-0-0---000--0-0--|----------------------||
      Once .. When...And day is    dark...no redemption   Close..crowd  For the last 
attention

Pre-Chorus 1 (1:01)
eb||--------------|-----------||
Bb||--------------|-----------||
Gb||--2-----------|-----------||
Db||--2-----------|-----------||
Ab||--0--0-0-0-0--|--0-1-3-0--||
Db||--------------|-----------||
      Chanting my name

Chorus (01:06)
eb||------------------------------|---------------------------|---------------------------------------------------||
Bb||------------------------------|---------------------------|---------------------------------------------------||
Gb||------------------------------|---------------------------|--3-----3-----3-----3-----3-----3-----3-----3------||
Db||--7-----7-------6------6------|--5------5-------3------3--|--3-----3-----3-----3-----3-----3-----3-----3------||
Ab||--0-----0-------0------0------|--5-5-5--5-5-5---3------3--|--1-----1-----1-----1-----1-----1-----1-----1------||
Db||----0-0----0-0----0-0----0-0--|--5------5-------3-0-0--3--|----0-0---0-0---0-0---0-0---0-0---0-0---0-0---0-0--||
      Wel..come.... all... to...... cur.....tain   call at the  opera
eb||------------------------------|---------------------------|---------------------------------------------------||
Bb||------------------------------|---------------------------|---------------------------------------------------||
Gb||------------------------------|---------------------------|--3-----3-----3-----3-----3-----3-----3-----3------||
Db||--7-----7-------6------6------|--5------5-------3------3--|--3-----3-----3-----3-----3-----3-----3-----3------||
Ab||--0-----0-------0------0------|--5-5-5--5-5-5---3------3--|--1-----1-----1-----1-----1-----1-----1-----1------||
Db||----0-0----0-0----0-0----0-0--|--5------5-------3-0-0--3--|----0-0---0-0---0-0---0-0---0-0---0-0---0-0---0-0--||
      Ra...ging.... voices in my     mind          Rising ...... orchestra
eb||-----------------------------------------------------------------||
Bb||-----------------------------------------------------------------||
Gb||--3-----3------3-----3------2-----2-----2-----2-----2------------||
Db||--3-----3------3-----3------2-----2-----2-----2-----2-----0------||
Ab||--1-----1------1-----1------0-----0-----0-----0-----0-----0------||
Db||----0-0---0-0----0-0---0-0----0-0---0-0---0-0---0-0---0-0-0-0-0--||
      Like a crescendo of .....gratitude          This is my song

Verse 2 (01:28)
eb||----------------------|----------------------|----------------------|----------------------||
Bb||----------------------|----------------------|----------------------|----------------------||
Gb||----------------------|--3---------3---------|----------------------|--3---------3---------||
Db||--0---------0---------|--3----3-3--3----3-3--|--0---------0---------|--3----3-3--3----3-3--||
Ab||--0---0-0---0----0-0--|--111--1-1--111--1-1--|--0---0-0---0----0-0--|--111--1-1--111--1-1--||
Db||--000-0-0---000--0-0--|----------------------|--000-0-0---000--0-0--|----------------------||
      Like..other side.. .it in my ...redemption    Hush..night..soon it's all..for my attention

Pre-Chorus 2 (01:53)
eb||------------|-----------|------------|---------||
Bb||------------|-----------|------------|---------||
Gb||--2---------|-----------|--2---------|---------||
Db||--2---------|-----------|--2---------|---------||
Ab||--0-000000--|--0-1-3-0--|--0-000000--|--0-1-3--||
Db||------------|-----------|------------|---------||
      Chanting...          Chanting my name
[ Tab from: http://www.guitaretab.com/k/kamelot/88496.html ]
Chorus (02:01)
eb||------------------------------|---------------------------|---------------------------------------------------||
Bb||------------------------------|---------------------------|---------------------------------------------------||
Gb||------------------------------|---------------------------|--3-----3-----3-----3-----3-----3-----3-----3------||
Db||--7-----7-------6------6------|--5------5-------3------3--|--3-----3-----3-----3-----3-----3-----3-----3------||
Ab||--0-----0-------0------0------|--5-5-5--5-5-5---3------3--|--1-----1-----1-----1-----1-----1-----1-----1------||
Db||----0-0----0-0----0-0----0-0--|--5------5-------3-0-0--3--|----0-0---0-0---0-0---0-0---0-0---0-0---0-0---0-0--||
      Wel..come.... all... to...... cur.....tain   call at the  opera
eb||------------------------------|---------------------------|---------------------------------------------------||
Bb||------------------------------|---------------------------|---------------------------------------------------||
Gb||------------------------------|---------------------------|--3-----3-----3-----3-----3-----3-----3-----3------||
Db||--7-----7-------6------6------|--5------5-------3------3--|--3-----3-----3-----3-----3-----3-----3-----3------||
Ab||--0-----0-------0------0------|--5-5-5--5-5-5---3------3--|--1-----1-----1-----1-----1-----1-----1-----1------||
Db||----0-0----0-0----0-0----0-0--|--5------5-------3-0-0--3--|----0-0---0-0---0-0---0-0---0-0---0-0---0-0---0-0--||
      Ra...ging.... voices in my     mind          Rising ...... orchestra
eb||----------------------------------------||
Bb||----------------------------------------||
Gb||--3-----3------3-----3------2-----2-----||
Db||--3-----3------3-----3------2-----2-----||
Ab||--1-----1------1-----1------0-----0-----||
Db||----0-0---0-0----0-0---0-0----0-0---0-0-||
      Like a crescendo of .....gratitude


Pre-Bridge
eb||----------------|----------------|----------------|---------||
Bb||----------------|----------------|----------------|---------||
Gb||----------------|----------------|----------------|---------|| x2
Db||--0-7-8--0-7-8--|--0-5-7--0-5-7--|--0-3-5--0-3-5--|--3-2----||
Ab||--0-7-8--0-7-8--|--0-5-7--0-5-7--|--0-3-5--0-3-5--|--3-2----||
Db||--0-7-8--0-7-8--|--0-5-7--0-5-7--|--0-3-5--0-3-5--|--3-2-0--||

Bridge
eb||-------------------------------|-------------------------------------||
Bb||-------------------------------|-------------------------------------||
Gb||-------------------------------|-------------------------------------|| x2
Db||-------------------------------|-------------------------------------||
Ab||--0----0----/5---0----0----/5--|--1-----1-----/5---/7-----5-----3-1--||
Db||---0-0--0-0----0---0-0--0-0----|----0-0---0-0----0----0-0---0-0------||

Guitar solo
eb||----------------------------------------10-12-13-12-13-15-13-15-17---/17---h18p17p15-17--||
Bb||--10h11p10-----10-----10-11-13-----------------------------------------------------------||
Gb||--------------12-------------------------------------------------------------------------||
Db||-----------------------------------------------------------------------------------------||
Ab||-----------------------------------------------------------------------------------------||
Db||-----------------------------------------------------------------------------------------||

eb||--15-13-1213p12-------10------------------------------------------------------------------||
Bb||-------------------------/15-----13p11p10--------------------------------------------------||
Gb||-----------------------------------------------12p9h10h12p10p9---------10p9----------------||
Db||----------------------------------------------------------------------12p10--------10p9p7--||
Ab||-------------------------------------------------------------------------------------------||
Db||-------------------------------------------------------------------------------------------||

eb||------------------------------------------------------------------------------13------17---13-----||
Bb||---------------------------------------------------------15----------------------15-----------15--||
Gb||--------------------------------------------------14----------14-------14-------------------------||
Db||----------------------7------------------------------15-----------15------------------------------||
Ab||----10p8p7h8h10-------8-----5------/17-17---------------------------------------------------------||
Db||--------------------------------------------------------------------------------------------------||

eb||----15--h17p15/12h13--------13----12------------------------------------------------------------------||
Bb||-----------------------------10-----10------13--15-13-11----------------------------------------------||
Gb||---------------------------------------------------------------14-12-10-------------------------------||
Db||---------------------------------------------------------------------------12-10-8-10-8-7-------------||
Ab||----------------------------------------------------------------------------------------------10-8-7--||
Db||------------------------------------------------------------------------------------------------------||

Pre-Chorus 3
eb||------------|-----------|------------|---------||
Bb||------------|-----------|------------|---------||
Gb||--2---------|-----------|--2---------|---------||
Db||--2---------|-----------|--2---------|---------||
Ab||--0-000000--|--0-1-3-0--|--0-000000--|--0-1-3--||
Db||------------|-----------|------------|---------||
      Chanting...          Chanting my name

Chorus
eb||------------------------------|---------------------------|---------------------------------------------------||
Bb||------------------------------|---------------------------|---------------------------------------------------||
Gb||------------------------------|---------------------------|--3-----3-----3-----3-----3-----3-----3-----3------||
Db||--7-----7-------6------6------|--5------5-------3------3--|--3-----3-----3-----3-----3-----3-----3-----3------||
Ab||--0-----0-------0------0------|--5-5-5--5-5-5---3------3--|--1-----1-----1-----1-----1-----1-----1-----1------||
Db||----0-0----0-0----0-0----0-0--|--5------5-------3-0-0--3--|----0-0---0-0---0-0---0-0---0-0---0-0---0-0---0-0--||
      Wel..come.... all... to...... cur.....tain   call at the  opera
eb||------------------------------|---------------------------|---------------------------------------------------||
Bb||------------------------------|---------------------------|---------------------------------------------------||
Gb||------------------------------|---------------------------|--3-----3-----3-----3-----3-----3-----3-----3------||
Db||--7-----7-------6------6------|--5------5-------3------3--|--3-----3-----3-----3-----3-----3-----3-----3------||
Ab||--0-----0-------0------0------|--5-5-5--5-5-5---3------3--|--1-----1-----1-----1-----1-----1-----1-----1------||
Db||----0-0----0-0----0-0----0-0--|--5------5-------3-0-0--3--|----0-0---0-0---0-0---0-0---0-0---0-0---0-0---0-0--||
      Ra...ging.... voices in my     mind          Rising ...... orchestra

eb||------------------------------|---------------------------|---------------------------------------------------||
Bb||------------------------------|---------------------------|---------------------------------------------------||
Gb||------------------------------|---------------------------|--3-----3-----3-----3-----3-----3-----3-----3------||
Db||--7-----7-------6------6------|--5------5-------3------3--|--3-----3-----3-----3-----3-----3-----3-----3------||
Ab||--0-----0-------0------0------|--5-5-5--5-5-5---3------3--|--1-----1-----1-----1-----1-----1-----1-----1------||
Db||----0-0----0-0----0-0----0-0--|--5------5-------3-0-0--3--|----0-0---0-0---0-0---0-0---0-0---0-0---0-0---0-0--||
      Wel..come.... all... to...... cur.....tain   call at the  opera
eb||------------------------------|---------------------------|---------------------------------------------------||
Bb||------------------------------|---------------------------|---------------------------------------------------||
Gb||------------------------------|---------------------------|--3-----3-----3-----3-----3-----3-----3-----3------||
Db||--7-----7-------6------6------|--5------5-------3------3--|--3-----3-----3-----3-----3-----3-----3-----3------||
Ab||--0-----0-------0------0------|--5-5-5--5-5-5---3------3--|--1-----1-----1-----1-----1-----1-----1-----1------||
Db||----0-0----0-0----0-0----0-0--|--5------5-------3-0-0--3--|----0-0---0-0---0-0---0-0---0-0---0-0---0-0---0-0--||
      Ra...ging.... voices in my     mind          Rising ...... orchestra


Outro
eb||----------------|----------------|----------------|---------||
Bb||----------------|----------------|----------------|---------||
Gb||----------------|----------------|----------------|---------||
Db||--0-7-8--0-7-8--|--0-5-7--0-5-7--|--0-3-5--0-3-5--|--3-2----||
Ab||--0-7-8--0-7-8--|--0-5-7--0-5-7--|--0-3-5--0-3-5--|--3-2----||
Db||--0-7-8--0-7-8--|--0-5-7--0-5-7--|--0-3-5--0-3-5--|--3-2-0--||

eb||----------------|----------------|----------------|--------||
Bb||----------------|----------------|----------------|--------||
Gb||----------------|----------------|----------------|--------||
Db||--0-7-8--0-7-8--|--0-5-7--0-5-7--|--0-3-5--0-3-5--|--3-2---||
Ab||--0-7-8--0-7-8--|--0-5-7--0-5-7--|--0-3-5--0-3-5--|--3-2---||
Db||--0-7-8--0-7-8--|--0-5-7--0-5-7--|--0-3-5--0-3-5--|--3-2---||



FULL LYRICS
Ghost Opera
Kamelot

Once a while
When your sorrows have a name
And day is dark as night
No remorse and no redemption
Close the door, can you hear the crowd is waiting
For the last encore
Screaming out for my attention

Chanting my name

[Chorus]
Welcome all to curtain call at the opera
Raging voices in my mind
Rising above the orchestra
Like a crescendo of gratitude

This is my song

Like the dead I am on the other side
There have it in my head
No remorse and no redemption
Hush my dear
Let the music fill the night
And soon it's all we hear
They're screaming out for my attention

Chanting my name (2x)

[Chorus]

Don't wake me until it's over
I, I may be dreaming and awake

Chanting my name (2x)

[Chorus]
Related for Ghost Opera tab